Chordie logo


Escape    Hoobastank



Tuning: Drop D - D A D G B e

Intro/Verse:
e|-------------------------------------------------------------------|
B|-------------------------------------------------------------------|
G|------------0---------------0---------------0---------------0------|
D|--------3---------------3---------------3---------------3----------|
A|-------------------------------------------------------------------|
D|--5---5---------5-5---5---------5-5---5---------5-5---5------------|

e|-------------------------------------------------------------------|
B|-------------------------------------------------------------------|
G|--------------0---------------0---------------0---------------0----|
D|----------3---------------3---------------3---------------3--------|
A|-------------------------------------------------------------------|
D|--5-3---3---------3-3---3---------3-2---2---------2-2---2----------|

Chorus:
e|-------------------------------------------------------------------|
B|-------------------------------------------------------------------|
G|--------------------------5---------------3---------------5--------|
D|--1-------5-------3-------5-------1-------3-------3-------5--------|
A|--1-------5-------3-------3-------1-------1-------3-------3--------|
D|--1-------5-------3---------------1---------------3----------------|

Solo:
e|-------------------------------------------------------------------|
B|------------------6--6--6---------------------------------6--6--6--|
G|--8--8--8-7--7--7---------8--8--8-7--7--7---------7--7--7----------|
D|------------------------------------------8--8--8------------------|
A|-------------------------------------------------------------------|
D|-------------------------------------------------------------------|

e|-------------------------------------------------------------------|
B|------------------6--6--6---------6--6--6-6--6--6-9--9--9-9--9--9--|
G|--8--8--8-7--7--7---------8--8--8----------------------------------|
D|-------------------------------------------------------------------|
A|-------------------------------------------------------------------|
D|-------------------------------------------------------------------|


PLEASE TAKE TIME TO VISIT MY WEBSITE:

Free Backstage Passes To Concerts


Important: The song above is NOT stored on the Chordie server. The original song is hosted at www.xguitar.com. Chordie works as a search engine and provides on-the-fly formatting. Chordie does not index songs against artists/composers will. To remove this song please click here.

This song is displayed as text-only. Transposing and tuning is only available for chordpro-songs.

Login - add to songbook

Rating click stars to rate

Layout
Accuracy

SHARE PAGE  




You need to log in to post comments