Guitar Tabs, Chords and Lyrics


...As the Future Repeats Today    In Flames



IN FLAMES - AS THE FUTURE REPEATS TODAY
                         From the Album CLAYMAN
                      Copyright 2000 Nuclear Blast
                       Version 1.0 - JUNE 2000


Transcription Done By: Jeremy Disten

For Questions, Comments, Corrections, or Newest Version;
          please contact Jeremy at jdustpan@hotmail.com

Check Out Death Warp, With More Transcriptions On It:
               http://www.sorrowsend.com/DeathWarp/

.  - palm mute                          /  - slide up to
\  - slide down to                      ~  - vibrato
"  - tremelo picking                    () - ghost note
p  - pull off                           h  - hammer-on
tr - trill notes                        fb - full bend (1step)
< > - harmonic

In Flames - As The Future Repeats Today

Tune to A (Each string down 3 whole steps)

Riff A
|-------------------------------------|
|-------------------------------------|
|-------------------------------------|Gtrs I
|-------------------------------------|  & II
|-2---4-5--7-----10-10-10-10-10-9-9-9-|
|-0---2-3--5------8--8--8--8--8-7-7-7-|


|-------------------------------------|
|-------------------------------------|
|-------------------------------------|Gtrs I
|-------------------------------------|  & II
|-2-2------------10-10-10-10-10-9-9-9-|
|-0-0-0-0-0-0-0-0-8--8--8--8--8-7-7-7-|


Repeat Riff A (2.25 Times)


Riff B
|---------------------------|
|---------------------------|
|---------------------------|Gtrs I
|---------------------------|  & II
|--------------5--7--10--7--|
|-000-----000--3--5---8--5--|


Repeat Riff B (1 Time)


Riff C
|---------------------------------------------------------------|
|---------------------------------------------------------------|
|-4-----4---------4-----4---------2-----0---2-------------------|Gtr I
|-----5-----2---------5-----2--------------------4-4-----4-4-4--|
|------------------------------------------------2-2-2-2-2-2-2--|
|---0-----0---0-0---0-----0---0-0---3-3---3---3-----------------|
|                                                               |
|---------------------------------------------------------------|
|---------------------------------------------------4---4-7-4---|
|---------------------------------2-----0---2---2/4---4-------4-|Gtr II
|-5---2-5---2-----5---2-5---2-----------------------------------|
|---------------------------------------------------------------|
|---0-----0---0-0---0-----0---0-0---3-3---3---3-----------------|


|---------------------------------------------------------------|
|---------------------------------------------------------------|
|-4-----4---------4-----4---------2-----0---2-------------------|Gtr I
|-----5-----2---------5-----2--------------------5--5-5-4-4-4-7-|
|------------------------------------------------3--3-3-2-2-2-5-|
|---0-----0---0-0---0-----0---0-0---3-3---3---3-----------------|
|                                                               |
|---------------------------------------------------------------|
|---------------------------------------------------------------|
|---------------------------------2-----0---2---2/5-4---------hp|Gtr II
|-5---2-5---2-----5---2-5---2-------------------------7-5~-5-454|
|---------------------------------------------------------------|
|---0-----0---0-0---0-----0---0-0---3-3---3---3-----------------|


Repeat Riff C (1 Time)


Riff D
|--------------------------------------------------------------------|
|-----------------------------------------------------------7---8----|
|--------------------9-----9---7----------------------9--------------|Gtr
|------------------9---------9---9------------------9---------9---9--| I
|-10101010-9-9-9-9-----------------10101010-9-9-9-9------------------|
|--8-8-8-8-7-7-7-7-----0-0----------8-8-8-8-7-7-7-7-----0-0----------|
|                                                                    |
|---------------------------------------------------------------7----|
|--------------------8-----8---7----------------------8----10--------|
|--------------------------------------------------------------------|Gtr
|------------------9---------9---9------------------9---------9---9--| II
|-10101010-9-9-9-9-----------------10101010-9-9-9-9------------------|
|--8-8-8-8-7-7-7-7-----0-0----------8-8-8-8-7-7-7-7-----0-0----------|


|--------------------------------------------------------------------|
|---------------------------------------------------------------10-12|
|--------------------9-----9---7----------------------9-11-12-9------|Gtr
|------------------9---------9---9------------------9----------------| I
|-10101010-9-9-9-9-----------------10101010-9-9-9-9------------------|
|--8-8-8-8-7-7-7-7----0-0-----------8-8-8-8-7-7-7-7------------------|
|                                                                    |
|--------------------------------------------------------------------|
|--------------------8-----8---7-------------------------------------|
|-----------------------------------------------------9-11-12-9-11-12|Gtr
|------------------9---------9---9------------------9----------------| II
|-10101010-9-9-9-9-----------------10101010-9-9-9-9------------------|
|--8-8-8-8-7-7-7-7-----0-0----------8-8-8-8-7-7-7-7------------------|


Riff E
|-----------------------------------------------------------------|
|-----------------------------------------------------------------|
|------------hp--------------hp-------------2-4-----2---2-4~------|Gtr I
|-2---2---5-454-0-2---2---5-454-0-5---5---5-----5-----5-----------|?????
|-----------------------------------------------------------------|
|-----------------------------------------------------------------|
|                                                                 |
|-----------------------------------------------------------------|
|-----------------------------------------------------------------|
|-----------------------------------------------------------------|Gtr II
|---------------------------------5-5-5-5-5-5-5-5-2-2-2-2-2-2-2-2-|
|-2-2-2-2-2-2-2-2-2-2-2-2-2-2-2-2-3-3-3-3-3-3-3-3-0-0-0-0-0-0-0-0-|
|-0-0-0-0-0-0-0-0-0-0-0-0-0-0-0-0---------------------------------|


|-----------------------------------------------------------------|
|-----------------------------------------------------------------|
|-----------------------------------------------------------------|Gtr II
|---------------------------------5-5-5-5-5-5-5-5-2-2-2-4---------|
|-2-2-2-2-2-2-2-2-2-2-2-2-2-2-2-2-3-3-3-3-3-3-3-3-0-0-0-2---------|
|-0-0-0-0-0-0-0-0-0-0-0-0-0-0-0-0---------------------------------|


Repeat Riff E (1 Time)
Repeat Riff B (2 Times)
Repeat Riff C (1 Time)
Repeat Riff D (1 Time)
Repeat Riff E (2 Times)


Riff F (Rhythm Under Solo)
|-----------------------------------------------------------------|
|-----------------------------------------------------------------|
|-----------------------------------------------------------------|Gtr II
|-2--2-2-2-2-2-2---2-2-2-2-2-2----2-2-2-2-------------------------|
|-0--0-0-0-0-0-0---0-0-0-0-0---3\-0-0-0-0-0-0-0-0-3-3-3-3-3-3-3-3-|
|-------------------------------------------------1-1-1-1-1-1-1-1-|

|-----------------------------------------------------------------|
|-----------------------------------------------------------------|
|-----------------------------------------------------------------|Gtr II
|-2--------------------------2----2---------------5-5-5-5-5-5-5-5-|
|-0--0-0-0-0-0-0---0-0-0-0-0---3\-0-0-0-0-0-0-0-0-3-3-3-3-3-3-3-3-|
|-----------------------------------------------------------------|


Riff G                                                 p
|-----------------------------------------------6fb-6-65------------|
|---6---5-6-8-6p5-----------------------6---5-6---------8-6-5-------|
|-7---------------7-------------------7-----------------------7-5-7-|Gtr I
|-----0-----------------------------------0-------------------------|
|-------------------------------------------------------------------|
|-------------------------------------------------------------------|
|                                                                   |
|------------------------------------------------------pp-----------|
|-----------5-----------------------------------8fb-8-865-----------|
|---7---5-7---7p5-----------------------7---5-7-----------7-5-------|Gtr II
|-7---0-----------7-------------------7---0-------------------7-5-7-|
|-------------------------------------------------------------------|
|-------------------------------------------------------------------|
|                                                                   |
|-------------------------------------------------------------------|
|-3-3-3-3-3-3-3-3-3-3-3-3-3-3-3-3-3-3-3-3-3-3-3-3-------------------|
|-2-2-2-2-2-2-2-2-2-2-2-2-2-2-2-2-2-2-2-2-2-2-2-2-------------------|Gtr III
|-0-0-0-0-0-0-0-0-0-0-0-0-0-0-0-0-0-0-0-0-0-0-0-0-3-3-3-3-3-3-3-3---|
|-------------------------------------------------1-1-1-1-1-1-1-1---|
|-------------------------------------------------------------------|

                                                          hp
|-------------8------------10-12-13~------10-12-13-121312-10-12-----|
|---6---5-6-8---8fb~----10-------------10-----------------------12~-|
|-7-----------------------------------------------------------------|Gtr I
|-----0-------------------------------------------------------------|
|-------------------------------------------------------------------|
|-------------------------------------------------------------------|
|                                                                   |
|-------------------------------------------------------------------|
|-------------------------------------------------------------------|
|-too buried to hear....--------------------------------------------|Gtr II
|-------------------------------------------------------------------|
|-------------------------------------------------------------------|
|-------------------------------------------------------------------|
|                                                                   |
|-------------------------------------------------------------------|
|-3-3-3-3-3-3-3-3-3-3-3-3-3-3-3-3-3-3-3-3-3-3-3-3-------------------|
|-2-2-2-2-2-2-2-2-2-2-2-2-2-2-2-2-2-2-2-2-2-2-2-2-------------------|Gtr III
|-0-0-0-0-0-0-0-0-0-0-0-0-0-0-0-0-0-0-0-0-0-0-0-0-3-3-3-3-3-3-3-3---|
|-------------------------------------------------1-1-1-1-1-1-1-1---|
|-------------------------------------------------------------------|


Repeat Riff E (2 Times)


Riff I
|------------------------------|
|------------------------------|
|------------------------------|Gtrs I
|-2-2-2-4-----2---2-4-----2----|  & II
|-0-0-0-2-----0---0-2-----2----|
|-------------------------0----|

Check Out Death Warp, With More Transcriptions On It:


Important: The song above is NOT stored on the Chordie server. The original song is hosted at www.xguitar.com. Chordie works as a search engine and provides on-the-fly formatting. Chordie does not index songs against artists'/composers' will. To remove this song please click here.

This song is displayed as text-only. Transposing and tuning is only available for chordpro-songs.

Login - add to songbook

Rating click stars to rate

Layout
Accuracy

SHARE PAGE  




You need to log in to post comments