Chordie logo


System    In Flames



Band:  In Flames
Album: Reroute to Remain
Song: System

Copyright (c)  Nuclear Blast, 2002
Version 1.0 - 7/10/2003

Transcribed By: Shaun Secaur
Email:     Soulterashaun@yahoo.com


.  - palm mute           /  - slide up to
\  - slide down to       ~  - vibrato
h  - hammer on           b  - Bend
p  - pull off            Suffixes for bend
t  - tap                 f  - full bend    h - half bend
ph - pinched harmonic    q  - quarter bend t - tap bend
*  - see comment         ^  - Hold bend    r release bend
x  - Stuccatto           ~  - vibrato bend
,  - slight palm mute    () - ghost note, sustained note
"  - tremolo note         - Trill

Tuning; Drop D Down 2 whole steps

Riff 1 (Either play the 0's up and down picked or just down picked,
but down picking with that sounds better.)
|----------------------------------------------------------|
|----------------------------------------------------------|
|----------------------------------------------------------|
|----------------p-h---------------3------------------p-h--|
|--000000000000-1-0-1-000000000000-1-0--000000000000-1-0-1-|
|--000000000000-1-0-1-000000000000---0--000000000000-1-0-1-|

|-------------------|
|-------------------|
|-------------------|
|---------3---------|
|--000000-1--3---0--|
|--000000--x-3-x-0--|
Second time play last 3 chords twice

Riff 2
|----------------------------|
|----------------------------|
|----------------------------|
|--7\5---------8\7-----------|
|--------5-8----------7-10---|
|-0----0-----0-----0---------|
  .    .     .     .

Play Riff 1
Then Riff 2 four times

Riff 3 (Clean)
|-----------------------------------------------------------------|
|-----------------------------------------------------------------|
|--10-----10--10/12-9----9----9---10--10--10-12-14--12-10-9-12-10-|
|---8------8--------7--10---10--10--10-8---8----------------------|
|-----------------------------------------------------------------|
|-----------------------------------------------------------------|

Play first half again

Chorus Riff (Riff 4)
|--------------------------------------------------------------|
|--------------------------------------------------------------|
|--------------------------------------------------------------|
|--333333--333333--666666--666666--101010101010--101010101010--|
|--333333--333333--666666--666666--101010101010--101010101010--|
|--333333--333333--666666--666666--101010101010--101010101010--|

|------------------------------------------------------|
|------------------------------------------------------|
|------------------------------------------------------|
|--101010101010--101010101010--333333--333333--666666--|
|--101010101010--101010101010--333333--333333--666666--|
|--101010101010--101010101010--333333--333333--666666--|

|---------------------------------|
|---------------------------------|
|---------------------------------|
|--666666--1--1--1--1--8-8-8-8-8--|
|--666666--1--1--1--1--8-8-8-8-8--|
|--666666--1--1--1--1--8-8-8-8-8--|

Riff 2 once
Riff 1 Twice
Chorus (Riff 4)

Breakdown (Riff 5) (One guitar is just letting the E and A strings
ring open, the other is doing this)
|----------------------------------|
|----------------------------------|
|----------------------------------|
|----------------------------------|
|--00-000-000-000-000-000-000-000--|
|--00-000-000-000-000-000-000-000--|

			 (Both guitars)
|------------------------------------|
|------------------------------------|
|--------------------------88888888--|
|--------------------------xxxxxxxx--|
|--00-000-000-000-000-000--66666666--|
|--00-000-000-000-000-000------------|
Repeat all of Riff 5 once
Then play Riff 6 under keyboard solo

Riff 6
|----------------------------------|
|----------------------------------|
|----------------------------------|
|----------------------------------|
|--00-000-000-000-888-888-777-777--|
|--00-000-000-000-888-888-777-777--|

|------------------------------------|
|------------------------------------|
|--------------------------88888888--|
|--------------------------xxxxxxxx--|
|--00-000-000-000-888-888--66666666--|
|--00-000-000-000-888-888------------|

Repeat once
Then Riff three
Hit a power chord on the 3rd fret once
Then Chorus, modulated up a whole step

|--------------------------------------------------------------|
|--------------------------------------------------------------|
|--------------------------------------------------------------|
|--555555--555555--888888--888888--121212121212--121212121212--|
|--555555--555555--888888--888888--121212121212--121212121212--|
|--555555--555555--888888--888888--121212121212--121212121212--|

|--------------------------------------------------------------|
|--------------------------------------------------------------|
|--------------------------------------------------------------|
|--121212121212--121212121212--555555--555555--888888--888888--|
|--121212121212--121212121212--555555--555555--888888--888888--|
|--121212121212--121212121212--555555--555555--888888--888888--|

|------------------------------|
|------------------------------|
|------------------------------|
|--3--3--3--3--10-10-10-10-10--|
|--3--3--3--3--10-10-10-10-10--|
|--3--3--3--3--10-10-10-10-10--|

Repeat Once
That's it!


Important: The song above is NOT stored on the Chordie server. The original song is hosted at www.xguitar.com. Chordie works as a search engine and provides on-the-fly formatting. Chordie does not index songs against artists/composers will. To remove this song please click here.

This song is displayed as text-only. Transposing and tuning is only available for chordpro-songs.

Login - add to songbook

Rating click stars to rate

Layout
Accuracy

SHARE PAGE  




You need to log in to post comments