Guitar Tabs, Chords and Lyrics


Nowhere Fast   Incubus








song:   Nowhere Fast
Artist: Incubus
Album:  Make Yourself

comments and questions are welcomed.

play this song with dropped D tunning

INTRO:
play it with phaser, reberb and a little bit of delay
e|------------------------------------|-----------------------|
B|------------------------------------|-----------------------|
G|--0-0-------------------------------|-The 4th time----------|
D|------4-4---------------------------|-enters another---x-x--|
A|----------5-5-----3-3-3-3-3/8-8-8-8-|-guitar doing ----x-x--|
D|--------------0-0-3-3-3-3-3/8-8-8-8-|-a noise--->>>>---x-x--|

Distorted
e|-----------------------------------------|
B|-----------------------------------------|
G|-11--11-11-11--11-11-/5-5-5-5-/10-10-10--|
D|-x---x--x--x---x--x--/3-3-3-3-/8--8--8---|
A|-9---9--9--9---9--9--/3-3-3-3-/8--8--8---|
D|-0---0--0--0---0--0--/3-3-3-3-/8--8--8---|

e|-----------------------------------------|
B|-----------------------------------------|
G|-11--11-11-11--11-11-/5-5-5-5-/10-10-10--|
D|-x---x--x--x---x--x--/3-3-3-3-/8--8--8---|
A|-9---9--9--9---9--9--/3-3-3-3-/8--8--8---|
D|-0---0--0--0---0--0--/3-3-3-3-/8--8--8---|

e|-----------------------------------------|
B|-----------------------------------------|
G|-X-------------11-11-/5-5-5-5-/10-10-10--|
D|-X-------------x--x--/3-3-3-3-/8--8--8---|
A|-X-------------9--9--/3-3-3-3-/8--8--8---|
D|-X-------------0--0--/3-3-3-3-/8--8--8---|

e|---------------------------------------------|
B|---------------------------------------------|
G|-11--11-11-11--11-11-/12-12-12-12-10-10-10--|
D|-x---x--x--x---x--x--/10-10-10-10-8--8--8---|
A|-9---9--9--9---9--9--/10-10-10-10-8--8--8---|
D|-0---0--0--0---0--0--/10-10-10-10-8--8--8---|

e|-----------------------------------------|
B|-----------------------------------------|
G|-11--11-11-11--11-11-/5-5-5-5-/10-10-10--|
D|-x---x--x--x---x--x--/3-3-3-3-/8--8--8---|
A|-9---9--9--9---9--9--/3-3-3-3-/8--8--8---|
D|-0---0--0--0---0--0--/3-3-3-3-/8--8--8---|

e|-----------------------------------------|
B|-----------------------------------------|
G|-11--11-11-11--11-11-/5-5-5-5-/10-10-10--|
D|-x---x--x--x---x--x--/3-3-3-3-/8--8--8---|
A|-9---9--9--9---9--9--/3-3-3-3-/8--8--8---|
D|-0---0--0--0---0--0--/3-3-3-3-/8--8--8---|

e|-----------------------------------------|
B|-----------------------------------------|
G|-X---X---X-----11-11-/5-5-5-5-/10-10-10--|
D|-X---X---X-----x--x--/3-3-3-3-/8--8--8---|
A|-X---X---X-----9--9--/3-3-3-3-/8--8--8---|
D|-X---X---X-----0--0--/3-3-3-3-/8--8--8---|

e|---------------------------------------------|
B|---------------------------------------------|
G|-11--11-11-11--11-11-/12-12-12-12-10-10-10--|
D|-x---x--x--x---x--x--/10-10-10-10-8--8--8---|
A|-9---9--9--9---9--9--/10-10-10-10-8--8--8---|
D|-0---0--0--0---0--0--/10-10-10-10-8--8--8---|

Verse:
Use same effects as intro but add a "gate fx"
It simulates a "volume in" fx
             T
e|--2--------14--------5---------------|
B|--2------------------5-----7h8p7h8p7-|
G|--2------------------5---------------|
D|-------------------------------------|
A|-------------------------------------|
D|-------------------------------------|

e|--2--------14--------5-----6--5----|
B|--2------------------5-----6--5----|
G|--2------------------5-----6--5----|
D|-----------------------------------|
A|-----------------------------------|
D|-----------------------------------|

Pre-chorus:

I`m not sure about the guitar line but this sounds great:
                                  play this full distorted
e|--------------------------------------------------|
B|---------------------------------------_______----|
G|------------------------------5-5-5----5-5-5-5----|
D|--7--7-7-7---7-7-7---7--7-7-7-5-5-5----5-5-5-5----|
A|-5--5-5-5---5-5---5--5-5-5-5--3-3-3----3-3-3-3----|
D|-----------8----8----5----------------------------|

Chorus: the same as 2nd part of the intro.

Bridge

e|------------------9-----7------------------------------------|
B|-------------7-----10-7--7---------5---------------8---------|
G|--------------7-----------7-----7-----7-------10-------10----|
D|----4--4h5-----7---------------7-7---7-7----10--10---10--10--|
A|---5--5----------------------5------------8------------------|
D|-0---------------------------5------------8------------------|

in this part try to bent some notes to simulate a sitar fx.
e|---------------------------------------------------|
B|---------------------------------------------------|
G|-/11-11--14-14--11--9-7--6/7-7-6/7-7-7-------------|
D|-/11-11--14-14--11--9-7--6/7-7-6/7-7-7--0-1-1-0--0-|
A|----------------------------------------0-1-1-0--0-|
D|----------------------------------------0-1-1-0--0-|

e|-------------------------------------------|
B|-------------------------------------------|
G|-/11-11--14-14--11--9-7--------------------|
D|-/11-11--14-14--11--9-7--8-8-8-8-8-8-8-----|
A|-------------------------8-8-8-8-8-8-8-----|
D|-------------------------8-8-8-8-8-8-8-----|

quiet chorus:

Play first part of intro. 4 times
e|------------------------------------|
B|------------------------------------|
G|--0-0-------------------------------|
D|------4-4---------------------------|
A|----------5-5-----3-3-3-3-3/8-8-8-8-|
D|--------------0-0-3-3-3-3-3/8-8-8-8-|

and then:
e|-----------------------------------------|
B|-----------------------------------------|
G|-11--11-11-11--11-11-/5-5-5-5-/10-10-10--|
D|-x---x--x--x---x--x--/3-3-3-3-/8--8--8---|
A|-9---9--9--9---9--9--/3-3-3-3-/8--8--8---|
D|-0---0--0--0---0--0--/3-3-3-3-/8--8--8---|

e|-----------------------------------------|
B|-----------------------------------------|
G|-11--11-11-11--11-11-/5-5-5-5-/10-10-10--|
D|-x---x--x--x---x--x--/3-3-3-3-/8--8--8---|
A|-9---9--9--9---9--9--/3-3-3-3-/8--8--8---|
D|-0---0--0--0---0--0--/3-3-3-3-/8--8--8---|

e|-----------------------------------------|
B|-----------------------------------------|
G|-X-------------11-11-/5-5-5-5-/10-10-10--|
D|-X-------------x--x--/3-3-3-3-/8--8--8---|
A|-X-------------9--9--/3-3-3-3-/8--8--8---|
D|-X-------------0--0--/3-3-3-3-/8--8--8---|

e|---------------------------------------------|
B|---------------------------------------------|
G|-11--11-11-11--11-11-/12-12-12-12-12-12-12---|
D|-x---x--x--x---x--x--/10-10-10-10-10-10-10---|
A|-9---9--9--9---9--9--/10-10-10-10-10-10-10---|
D|-0---0--0--0---0--0--/10-10-10-10-10-10-10---|

OUTRO:

e|---------------------------------------------|-----|
B|---------------------------------------------|-----|
G|-11--11-11-11--11-11-/12-12-12-12-12-12-12---|-0---|
D|-x---x--x--x---x--x--/10-10-10-10-10-10-10---|-0---|
A|-9---9--9--9---9--9--/10-10-10-10-10-10-10---|-0---|


Important: The song above is NOT stored on the Chordie server. The original song is hosted at www.xguitar.com. Chordie works as a search engine and provides on-the-fly formatting. Chordie does not index songs against artists'/composers' will. To remove this song please click here.

This song is displayed as text-only. Transposing and tuning is only available for chordpro-songs.

Login - add to songbook

Rating click stars to rate

Layout
Accuracy

SHARE PAGE  




You need to log in to post comments