Guitar Tabs, Chords and Lyrics


Circles   Incubus



Band : Incubus
Album: Morning View
Track: 2
Song : Circles

Part : Guitar
Tuning: drop D

Tabbed: Nolan Venhola
Email : nolan@tooltabs.net
Visit : Tooltabs.net

Legend

nh - natural harmonic
 ph - pinch harmonic
 
pm - palm mute
 x - muted string
 
h - hammer on
 p - pull off
 
\\ - slide down
 // - slide up
 
b - bend
 ~~ - vibrato
 
 - natural harmonic
 x/// - pick scrape (directions same as slide)
 


--------------------------------------------------------------------------------
(distortion)

*intro toggle switch flicking*

(left channel only)
                         x3
e---------------------------|-------------------------------
b---------------------------|-------------------------------
g----------------------555--|-------------------------------
d----------------------555--|----------------------3/5-555--
a-------5-------5------333--|----------------------3/5-555--
d--0--3----0--3----3-0-555--|--0--5-8--0--5-8--3-0-3/5-555--

(both channels, band comes in)

                         x3
e---------------------------|-------------------------------
b---------------------------|-------------------------------
g----------------------555--|-------------------------------
d----------------------555--|----------------------3/5-555-- (x2)
a-------5-------5------333--|----------------------3/5-555--
d--0--3----0--3----3-0-555--|--0--5-8--0--5-8--3-0-3/5-555--

e------------------------------------------
b------------------------------------------
g----------------5----------------------5--
d--0-0-x-0-0-x-x-3--0-0-x-0-0-x-0-0-x-x-3--
a--0-0-x-0-0-x-x-3--0-0-x-0-0-x-0-0-x-x-3--
d--0-0-x-0-0-x-x----0-0-x-0-0-x-0-0-x-x----

e-------------------------------------------------------------
b-------------------------------------------------------------
g--7-7--7-7-\-5--x-7--7-7-\-5--5-5-5--------------------------
d------------------------------------x-5-5-5-x-6-6-6-x-3-3-3-- x4
a--5-5--5-5-\-3--x-5--5-5-\-3--3-3-3--------------------------
d------------------------------------x-5-5-5-x-6-6-6-x-3-3-3--

e----------------
b----------------
g--------555555--
d--1--1--333333-- x4
a--1--1--333333--
d--1--1----------

                             x3
e-------------------------------|---------------------------------
b-------------------------------|---------------------------------
g--7-7b--7-7b--7-7b--7-7-x-555--|---------------------------------
d-------------------------------|--0h3-3-3-3-3/8-8-8-8-8-8-8-8-8-- (x2)
a--5-5b--5-5b--5-5b--5-5-x-333--|--0h3-3-3-3-3/8-8-8-8-8-8-8-8-8--
d-------------------------------|--0h3-3-3-3-3/8-8-8-8-8-8-8-8-8--

e-------------------------------------------------------------
b-------------------------------------------------------------
g--7-7--7-7-\-5--x-7--7-7-\-5--5-5-5--------------------------
d------------------------------------x-5-5-5-x-6-6-6-x-3-3-3-- x4
a--5-5--5-5-\-3--x-5--5-5-\-3--3-3-3--------------------------
d------------------------------------x-5-5-5-x-6-6-6-x-3-3-3--

e----------------
b----------------
g--------555555--
d--1--1--333333-- x4
a--1--1--333333--
d--1--1----------

                             x3
e-------------------------------|---------------------------------
b-------------------------------|---------------------------------
g--7-7b--7-7b--7-7b--7-7-x-555--|---------------------------------
d-------------------------------|--0h3-3-3-3-3/8-8-8-8-8-8-8-8-8-- (x2)
a--5-5b--5-5b--5-5b--5-5-x-333--|--0h3-3-3-3-3/8-8-8-8-8-8-8-8-8--
d-------------------------------|--0h3-3-3-3-3/8-8-8-8-8-8-8-8-8--

e--------------------------------
b--------------------------------
g--------------------------------
d--5---0---8------5---0---8---1-- x5
a--5---0---8------5---0---8---1--
d--5---0---8------5---0---8---1--

e----------------------------------------
b----------------------------------------
g----------------------------------------
d--5---0---8------5---0---8--*feedback*--
a--5---0---8------5---0---8--------------
d--5---0---8------5---0---8--------------

e----------------
b----------------
g--------555555--
d--1--1--333333-- x4
a--1--1--333333--
d--1--1----------

                             x3
e-------------------------------|---------------------------------
b-------------------------------|---------------------------------
g--7-7b--7-7b--7-7b--7-7-x-555--|---------------------------------
d-------------------------------|--0h3-3-3-3-3/8-8-8-8-8-8-8-8-8-- (x2)
a--5-5b--5-5b--5-5b--5-5-x-333--|--0h3-3-3-3-3/8-8-8-8-8-8-8-8-8--
d-------------------------------|--0h3-3-3-3-3/8-8-8-8-8-8-8-8-8--

                         x3
e---------------------------|-------------------------------
b---------------------------|-------------------------------
g----------------------555--|-------------------------------
d----------------------555--|----------------------3/5-555--
a-------5-------5------333--|----------------------3/5-555--
d--0--3----0--3----3-0-555--|--0--5-8--0--5-8--3-0-3/5-555--

e------------------------------------------
b------------------------------------------
g----------------5----------------------5--
d--0-0-x-0-0-x-x-3--0-0-x-0-0-x-0-0-x-x-3-- x2
a--0-0-x-0-0-x-x-3--0-0-x-0-0-x-0-0-x-x-3--
d--0-0-x-0-0-x-x----0-0-x-0-0-x-0-0-x-x----

--------------------------------------------------------------------------------


Important: The song above is NOT stored on the Chordie server. The original song is hosted at www.xguitar.com. Chordie works as a search engine and provides on-the-fly formatting. Chordie does not index songs against artists/composers will. To remove this song please click here.

This song is displayed as text-only. Transposing and tuning is only available for chordpro-songs.

Login - add to songbook

Rating click stars to rate

Layout
Accuracy

SHARE PAGE  




You need to log in to post comments