Guitar Tabs, Chords and Lyrics


Just A Phase   Incubus




Band: Incubus
Song: Just a Phase
Album: Morning View
Tabbed By: FaTSkUnK
Intro
   X4
e|-------------------------------------------------------------|
b|---------------2------------------3--3-3-3-3-3--3--3--3--3-3-|
G|-----------------2-4p0-----0------4--4-4-4-4-4--4--4--4--4-4-|
D|-------0h4-5-0---------0h2---0----4--4-4-4-4-4--4--4--4--4-4-|
A|-----4-------------------------0--2--2-2-2-2-2--2--2--2--2-2-|
E|-0h5---------------------------------------------------------|
e|--------------------------------------------------------
B|-----------------------------3--3-3-3-3-3--3--3--3--3-3-
G|-1--1-1-1-1-1--1--1--1--1-1--4--4-4-4-4-4--4--4--4--4-4-
D|-2--2-2-2-2-2--2--2--2--2-2--4--4-4-4-4-4--4--4--4--4-4-
A|-2--2-2-2-2-2--2--2--2--2-2--2--2-2-2-2-2--2--2--2--2-2-
E|-0--0-0-0-0-0--0--0--0--0-0-----------------------------

  ----------------------------|
  ----------------------------|
  -1--1-1-1-1-1--1--1--1--1-1-|
  -2--2-2-2-2-2--2--2--2--2-2-|
  -2--2-2-2-2-2--2--2--2--2-2-|
  -0--0-0-0-0-0--0--0--0--0-0-|
- Intro X4
e|--------------------------------------------------------
B|-----------------------------3--3-3-3-3-3--3--3--3--3-3-
G|-1--1-1-1-1-1--1--1--1--1-1--4--4-4-4-4-4--4--4--4--4-4-
D|-2--2-2-2-2-2--2--2--2--2-2--4--4-4-4-4-4--4--4--4--4-4-
A|-2--2-2-2-2-2--2--2--2--2-2--2--2-2-2-2-2--2--2--2--2-2-
E|-0--0-0-0-0-0--0--0--0--0-0-----------------------------

  --------------------------------------------------------
  --------------------------------------------------------
  -1--1-1-1-1-1--1--1--1--1-1--4--4-4-4-4-4--4--4--4--4-4-
  -2--2-2-2-2-2--2--2--2--2-2--5--5-5-5-5-5--5--5--5--5-5-
  -2--2-2-2-2-2--2--2--2--2-2--5--5-5-5-5-5--5--5--5--5-5-
  -0--0-0-0-0-0--0--0--0--0-0--3--3-3-3-3-3--3--3--3--3-3-

  ----------------------------|
  ----------------------------|
  -3--3-3-3-3-3--3--3--3--3-3-|
  -4--4-4-4-4-4--4--4--4--4-4-|
  -4--4-4-4-4-4--4--4--4--4-4-|
  -2--2-2-2-2-2--2--2--2--2-2-|

Verse

e|---------------------------------------|--------------|
B|-------0-------------------------0-----|-----5--------|
G|-------1------------0------------1-----|-----6--------|
D|-----2---2--------4-5-4--------2---2---|---6----6-----|
A|---2-------2----5-------5----2-------2-|-4----------6-|
E|-0------------3------------0-----------|----------4---|
e|---------------------------------------|--------------|
B|-------0-------------------------0-----|-----5--------|
G|-------1------------0------------1-----|----6---------|
D|-----2---2--------4-5-4--------2---2---|---6----6-----|
A|---2-------2----5-------5----2-------2-|-4----------6-|
E|-0------------3------------0-----------|----------4---|

Pre-chorus

e|-------------------------------------------------------------------------------|
B|-------------------------------------------------------------------------------|
G|-------0---------------------0-----------------0--------------------0----------|
D|-----6---6-------6---6-----6---6-------------6---6------6---6-----6---6--------|
A|---4-------4-------------4-------4----3----4-------4------------4-------4----3-|
E|-5-------------5---4---5------------5----5------------5---4---5------------5---|

Chorus
  pm..................................
e|------------------------------------|
b|------------------------------------|
G|-5-5-5------------------------------|
D|-5-5-5-6-6-2-2--7--7-7--7-7---5-5-5-|
A|-3-3-3-6-6-2-2--7--7-7--7-7---5-5-5-|
E|-------4-4-0-0--5--5-5--5-5---3-3-3-|
- Verse
- Pre-chorus
- Chorus (palm muted)
- Chorus (not palm muted)


Important: The song above is NOT stored on the Chordie server. The original song is hosted at www.xguitar.com. Chordie works as a search engine and provides on-the-fly formatting. Chordie does not index songs against artists'/composers' will. To remove this song please click here.

This song is displayed as text-only. Transposing and tuning is only available for chordpro-songs.

Login - add to songbook

Rating click stars to rate

Layout
Accuracy

SHARE PAGE  




You need to log in to post comments