Guitar Tabs, Chords and Lyrics


Under My Umbrella   Incubus



INCUBUS, Under My Umbrella.
 Tabbed by Kevin, Kdawg8522@aol.com.
  







Author/Artist: Incubus
Title: Under My Umbrella
Album: Morning Veiw
Drop D (DADGBe)
Tabbed By: Sicktight311

This is my first tab so it probably has errors so sorry.
(IM PRETTY  SURE ITS 90% CORRECT) PLEASE RATE

Intro (Distortion)

------------------------------------------------------------------------------
------------------------------------------------------------------------------
-x-10-10-10-x-10-10-10-x-10-10-10-x-10-10-10-x-6-6-6-x-6-6-6-x-6-6-6-x-6-6-6--
-x-10-10-10-x-10-10-10-x-10-10-10-x-10-10-10-x-6-6-6-x-6-6-6-x-6-6-6-x-6-6-6--
-x-8--8--8--x-8--8--8--x-8--8--8--x-8--8--8--x-4-4-4-x-4-4-4-x-4-4-4-x-4-4-4--
------------------------------------------------------------------------------
                                                                              

------------------------------------------------------------------------------
------------------------------------------------------------------------------
----------------------------10-10-10------------x-66//8888\\\\6-----------------
-3-3-3-x-3-3-3-x-3-3-3-////-10-10-10-666666666--x-66//8888\\\\6-----------------
-3-3-3-x-3-3-3-x-3-3-3-////-8--8--8--666666666--x-44//6668\\\\4-----------------
-3-3-3-x-3-3-3-x-3-3-3-////----------666666666--------------------------------
 
Chrous
------------------------------------------------------------------------------
------------------------------------------------------------------------------
-x-10-10-10-x-10-10-10-x-10-10-10-x-10-10-10-x-6-6-6-x-6-6-6-x-6-6-6-x-6-6-6--
-x-10-10-10-x-10-10-10-x-10-10-10-x-10-10-10-x-6-6-6-x-6-6-6-x-6-6-6-x-6-6-6--
-x-8--8--8--x-8--8--8--x-8--8--8--x-8--8--8--x-4-4-4-x-4-4-4-x-4-4-4-x-4-4-4--
------------------------------------------------------------------------------
                                                                              

------------------------------------------------------------------------------
------------------------------------------------------------------------------
----------------------------10-10-10------------x-66//8888\\\\6-----------------
-3-3-3-x-3-3-3-x-3-3-3-////-10-10-10-666666666--x-66//8888\\\\6-----------------
-3-3-3-x-3-3-3-x-3-3-3-////-8--8--8--666666666--x-44//6668\\\\4-----------------
-3-3-3-x-3-3-3-x-3-3-3-////----------666666666--------------------------------
------------------------------------------------------------------------------
------------------------------------------------------------------------------
-x-10-10-10-x-10-10-10-x-10-10-10-x-10-10-10-x-6-6-6-x-6-6-6-x-6-6-6-x-6-6-6--
-x-10-10-10-x-10-10-10-x-10-10-10-x-10-10-10-x-6-6-6-x-6-6-6-x-6-6-6-x-6-6-6--
-x-8--8--8--x-8--8--8--x-8--8--8--x-8--8--8--x-4-4-4-x-4-4-4-x-4-4-4-x-4-4-4--
------------------------------------------------------------------------------
                                                                              

------------------------------------------------------------------------------
------------------------------------------------------------------------------
------------------------------------------66//88\\\\66--------------------------
-6-6-6-x-6-6-6-x-6-6-6-x-6-6-6--333333333-66//88\\\\66--------------------------
-6-6-6-x-6-6-6-x-6-6-6-x-6-6-6--333333333-44//66\\\\44--------------------------
-6-6-6-x-6-6-6-x-6-6-6-x-6-6-6--333333333-------------------------------------
 

Bridge(Distortion)                                                           

------------------------------------------------------------------------------
------------------------------------------------------------------------------
----------88\\\\66-------------88888--6-----------------------------------------
-6\\-33----88\\\\66---x3--then--88888--6-----------------------------------------
-6\\-33----66\\\\44-------------66666--4-----------------------------------------
-6\\-33------------------------------------------------------------------------
 Part after bridge (some sort of effect)                                      

------------------------------------------------------------------------------
------------------------------------------------------------------------------
-5////12\\\\\\9\\\\7-h9---5////12\\\\\\9\\\\7--5///12\\\\\\9\\\\7-h9--5///12\\\\9--x-----------
------------------------------------------------------------------------------
------------------------------------------------------------------------------
------------------------------------------------------------------------------
Order:
INTRO x2

Verse- No guitar
                                                                              
Chorus 

Verse- No guitar

Chorus

Bridge

Part after bridge

Chorus

Bridge 
:: Ultimate Guitar Archive :: 


Important: The song above is NOT stored on the Chordie server. The original song is hosted at www.xguitar.com. Chordie works as a search engine and provides on-the-fly formatting. Chordie does not index songs against artists'/composers' will. To remove this song please click here.

This song is displayed as text-only. Transposing and tuning is only available for chordpro-songs.

Login - add to songbook

Rating click stars to rate

Layout
Accuracy

SHARE PAGE  




You need to log in to post comments