Chordie logo


Down With The Clown   Insane Clown Posse



 ----------------------------------------------------------------------------------------------

	     SONG: Down With The Clown
	     BAND: Isane Clown Posse
	    ALBUM: The Great Milenko
   TRANSCRIBED BY: RockerROB@aol.com

 ----------------------------------------------------------------------------------------------

	TUNING: drop d (D,A,D,G,B,E)

     MAIN GUITAR/BASS RIFF:

    E|-------------------------------------------------|
    B|-------------------------------------------------|
    G|-------------------------------------------------|
    D|-------------------------------------------------|
    A|--5---5---10--12---10--10----12---10----15\---5--|
    D|--5---5---10--12---10--10----12---10----15\---5--|

     CHORUS:

    E|-------------------------------|
    B|-------------------------------|
    G|-------------------------------|
    D|-------------------------------|
    A|--8----6----5----8----6----10--|
    D|--8----6----5----8----6----10--|



Important: The song above is NOT stored on the Chordie server. The original song is hosted at www.xguitar.com. Chordie works as a search engine and provides on-the-fly formatting. Chordie does not index songs against artists/composers will. To remove this song please click here.

This song is displayed as text-only. Transposing and tuning is only available for chordpro-songs.

Login - add to songbook

Rating click stars to rate

Layout
Accuracy

SHARE PAGE  




You need to log in to post comments