Guitar Tabs, Chords and Lyrics


Halls Of Illusions   Insane Clown Posse



 ----------------------------------------------------------------------------------------------

	     SONG: Halls Of Illusions
	     BAND: Isane Clown Posse
	    ALBUM: The Great Milenko
   TRANSCRIBED BY: RockerROB@aol.com

 ----------------------------------------------------------------------------------------------

	TUNING: drop d (D,A,D,G,B,E)
     RIFF A:

    E|--10------------9----------------8---------------7--|
    B|----------------------------------------------------|
    G|----------------------------------------------------|
    D|----------------------------------------------------|
    A|----------------------------------------------------|
    D|----------------------------------------------------|

    E|--10-----10--------10-------------------------------|
    B|----------------------------------------------------|
    G|----------------------------------------------------|
    D|----------------------------------------------------|
    A|----------------------------------------------------|
    D|----------------------------------------------------|

     RIFF B:

    E|--10--10--10--10--9--9--9--9--8--8--8--8--7--7--7--7--|
    B|------------------------------------------------------|
    G|------------------------------------------------------|
    D|------------------------------------------------------|
    A|------------------------------------------------------|
    D|------------------------------------------------------|

     RIFF C: (chorus)

    E|-----------------------------------|
    B|-----------------------------------|
    G|-----------------------------------|
    D|-----------------------------------|
    A|--0--------0---0-----6----5-----3--|
    D|--0--------0---0-----6----5-----3--|



Important: The song above is NOT stored on the Chordie server. The original song is hosted at www.xguitar.com. Chordie works as a search engine and provides on-the-fly formatting. Chordie does not index songs against artists'/composers' will. To remove this song please click here.

This song is displayed as text-only. Transposing and tuning is only available for chordpro-songs.

Login - add to songbook

Rating click stars to rate

Layout
Accuracy

SHARE PAGE  




You need to log in to post comments