Guitar Tabs, Chords and Lyrics


Original Sin    Inxs



INXS - Original Sin
Tabbed By: iron man
Email: matto_684@hotmail.com

Tuning: Standard (E A D G B E)



This song is played different then what
I do but my way sounds excactly the same.

Riff 1  *Play this untill the Chours then stop.

E|--7-7--9-10---7-7--9-10-|--7-7--7---7-7--7--||
B|--7-7--9-10---7-7--9-10-|--7-7--7---7-7--7--||
G|------------------------|-------------------||
D|------------------------|-------------------||
A|------------------------|-------------------||
E|------------------------|-------------------||
    This Riff is the only one used in the song,
    if guitar is playing then this is what he's
    doing.

Riff 2 *Play this Riff with the sax and Trumpet
          near the end of the song.
E|--7-7--9-10---7-7--7-----------------||
B|--7-7--9-10---7-7--7-----------------||
G|-------------------------------------||
D|-------------------------------------||
A|-------------------------------------||


Important: The song above is NOT stored on the Chordie server. The original song is hosted at www.xguitar.com. Chordie works as a search engine and provides on-the-fly formatting. Chordie does not index songs against artists/composers will. To remove this song please click here.

This song is displayed as text-only. Transposing and tuning is only available for chordpro-songs.

Login - add to songbook

Rating click stars to rate

Layout
Accuracy

SHARE PAGE  




You need to log in to post comments