Chordie logo


Jawbreaker    Judas Priest



Author/Artist: Judas Priest
Title: Jawbreaker
Album: Defenders Of The Faith
Transcribed by: Son Of Northern Darkness
Email: felipecepollini@hotmail.com
Date: 17, 18, 19/June/2002

let ring =
palm mute .

 Intro
e|----------------------|
B|----------------------|
G|----------------------|
D|-9-----7--10--10--9=--|
A|-7--9--5---8---8--7=--|
E|----7-----------------|

  Verse 1 & 2
e|-----------------|-----------------|-----------------|
B|-----------------|-----------------|-----------------|
G|-----------------|-----------------|-----------------|
D|-9-----9---------|-5-----5---------|-4-----4---------|
A|-7-7-7-7-7-7-7-7-|-3-3-3-3-3-3-3-3-|-2-2-2-2-2-2-2-2-|
E|---.-.---.-.-.-.-|---.-.---.-.-.-.-|---.-.---.-.-.-.-|
 |
e|--------------------------------|
B|--------------------------------|
G|-----------------------7-9-10-7-| Play this in the last time.
D|-9-----9---------9--------------|
A|-7-7-7-7-7-7-7-7-7-7-7----------|
E|---.-.---.-.-.-.---.-.----------|

  Bridge
e|---------------------------------------------------|
B|---------------------------------------------------|
G|---------------------------------------------------|
D|-7--8--9=--7--8--9-----9---------9-----9---------9-|
A|-5--6--7=--5--6--7-7-7-7-7-7-7-7-7-7-7-7-7-7-7-7-7-|
E|-------------------.-.---.-.-.-.---.-.---.-.-.-.---|
 |
e|-----------------------|
B|-----------------------|
G|-----------------------|
D|-7--8--9---------------|
A|-5--6--7--9--10--7--9=-|
E|----------7---8--5--7=-|


  Chorus
e|---------------------------------------------------------------------------
B|---------------------------------------------------------------------------
G|-------10-----10-9-------10-----10-12-------10-----10----------------------
D|-------10-----10-9-------10-----10-12-------10-----10----------------------
A|-0-0-0----0-0------0-0-0----0-0-------0-0-0----0-0----0-0------------------
E|-.-.-.----.-.------.-.-.----.-.-------.-.-.----.-.----.-.------------------
 |1st end           2nd end: only in the 1st time of the chorus
e|-----------------|-----------------|
B|-----------------|-----------------| In the 2nd and 3rd times
G|-10-9------------|-----------------| of the chorus, the "2nd end"
D|------10-12-10-9-|-8-7-------------| change. But i didn't find the
A|-----------------|-----10-9-7------| right notes.
E|-----------------|------------10-9-|


  Interlude: 2X
e|-----------------------------------------------------|
B|-----------------------------------------------------|
G|-----------------------------------------------------|
D|-2-------------5-------------7-----7-----5-----5-----|
A|-0-0-0-0-0-0-0-3-0-0-0-0-0-0-5-0-0-5-0-0-3-0-0-3-0-0-|
E|---.-.-.-.-.-.---.-.-.-.-.-.---.-.---.-.---.-.---.-.-|


  Solo 1st part.
  1st, 2nd and 3rd times
e|-------------------------------------------------------|
B|-------------------------------------------------------|
G|-------------------------------------------------------|
D|-------------------------------------------------------|
A|-2-------------5-------------7-------------5-----5-----|
E|-0-0-0-0-0-0-0-3-0-0-0-0-0-0-5-0-0-0-0-0-0-3-0-0-3-0-0-|
 |   . . . . . .   . . . . . .   . . . . . .   . .   . .
 |  4th time
e|---------------------------------------------------------|
B|---------------------------------------------------------|
G|---------------------------------------------------------|
D|---------------------------------------------------------|
A|-2-------------5-------------7-------------5-----5-----7-|
E|-0-0-0-0-0-0-0-3-0-0-0-0-0-0-5-0-0-0-0-0-0-3-0-0-3-0-0-5-|
     . . . . . .   . . . . . .   . . . . . .   . .   . .

  Solo 2nd part
  2X
e|-----------------------------------------------------------------
B|-----------------------------------------------------------------
G|-----------------------------------------------------------------
D|-----------------------------------------------------------------
A|-----------------------------------------------------------------
E|-5-5-5-5-5-5-5-5-1-1-1-1-1-1-1-1-2-2-2-2-2-2-2-2-3-3-3-3-4-4-4-4-
   . . . . . . . . . . . . . . . . . . . . . . . . . . . . . . . .
-------------------------------------------------------|
-------------------------------------------------------|
-------------------------------------------------------|
-------------------------------------------------5---4-|
-------------------------------------------------3---2-|
-5-5-5-5-5-5-5-5-1-1-1-1-1-1-1-1-2-2-2-2-2-2-2-2-------|
 . . . . . . . . . . . . . . . . . . . . . . . .


  After the solo
e|----------------------------------------|
B|----------------------------------------|
G|----------------------------------------|
D|-2--3--4--5--6--7--8--9--10-11-12--11-9-| Not 100right
A|-0--1--2--3--4--5--6--7--8--9--10--9--7-|
E|----------------------------------------|


Listen the song to get the rhythm.


Important: The song above is NOT stored on the Chordie server. The original song is hosted at www.xguitar.com. Chordie works as a search engine and provides on-the-fly formatting. Chordie does not index songs against artists/composers will. To remove this song please click here.

This song is displayed as text-only. Transposing and tuning is only available for chordpro-songs.

Login - add to songbook

Rating click stars to rate

Layout
Accuracy

SHARE PAGE  




You need to log in to post comments