Guitar Tabs, Chords and Lyrics


Green Manalishi (With the Two-Pronged Crown)    Judas Priest



JUDAS PRIEST - THE GREEN MANALISHI
(with the two-pronged crown)
__________________________________

tabbed by Jason Miniaci

e-mail adress: pminiaci@penn.com

legend:

b:bend
h:hammar
p:pull off
\:slide down
/:slide up
/\/\/:tremelo
%:repeat
vvv:vibrato

|--------------------------------------------------------------|  
|--------------------------------------------------------------|
|--9--7--9----12-12-12----7-7-7----9-9--7-7--5-5---5-4-5---7---| 
|--9--7--9----12-12-12----7-7-7----9-9--7-7--5-5---5-4-5---7---|
|--7--5--7----10-10-10----5-5-5----7-7--5-5--3-3---3-2-3---5---|
|--------------------------------------------------------------|

(% above 1x with 2nd guitar playing this) 

|---------------------------------------------------|
|---------------------------------------------------|
|--------------------12----------------12-----------|
|---14vvv---12-------14vvv---12---------------------|
|------------------------------------------14vvv\---|
|---------------------------------------------------|



|----------------------------|-----------------|----------|-----------------|
|----------------------------|-----------------|----------|-----------------|
|-9--(48x,)------------------|--9--------------|--9-------|-9---------------|
|-9--(-after 16x 2ndguitar)--|--9--5-7-5-7-5-2-|--9--(16x)|-9--5-7-5-7-5-2--|
|-7--------------------------|--7--5-7-5-7-5-2-|--7-------|-7--5-7-5-7-5-2--|
|-0--------------------------|--0--3-5-3-5-3-0-|--0-------|-0--3-5-3-5-3-0--|



|---------|-----------------------------------|------------------------------|
|---------|-----------------------------------|------------------------------|
|---------|-----------------------------------|--9--7--9---12-12-12---7--(%)-|
|--5---7--|-----------------2-3-5---5-3-2-----|--9--7--9---12-12-12---7--(4x)|
|--5---7--|--2-2-3-5---5-------------------5--|--7--5--7---10-10-10---5------|
|--3---5--|-----------------------------------|------------------------------|



|--------------------------|-----------------|-----------|-----------------|
|--------------------------|-----------------|-----------|-----------------|
|-9--(48x,)----------------|--9--------------|--9--------|-9---------------|
|-9--(-after 16x 2ndguitar)|--9--5-7-5-7-5-2-|--9--(16x)-|-9--5-7-5-7-5-2--|
|-7------------------------|--7--5-7-5-7-5-2-|--7--------|-7--5-7-5-7-5-2--|
|-0------------------------|--0--3-5-3-5-3-0-|--0--------|-0--3-5-3-5-3-0--|



|---------|-----------------------------------------|------------------------------|
|---------|-----------------------------------------|------------------------------|
|---------|-----------------------------------------|--9--7--9---12-12-12---7--(%)-|
|--5---7--|----------------------2-3-5---5-3-2------|--9--7--9---12-12-12---7--(4x)|
|--5---7--|--2-2-3-5---5-------------------------5--|--7--5--7---10-10-10---5------|
|--3---5--|-----------------------------------------|------------------------------|

                         (solo)             

|--------------------------------------------------------------|  
|--------------------------------------------------------------|
|--9--7--9----12-12-12----7-7-7----9-9--7-7--5-5---5-4-5---7---|  % 4x
|--9--7--9----12-12-12----7-7-7----9-9--7-7--5-5---5-4-5---7---| (undersolo)
|--7--5--7----10-10-10----5-5-5----7-7--5-5--3-3---3-2-3---5---|
|--------------------------------------------------------------|

                        

|-----------------------------------------7--10--9--7--10--9--|
|---9b--9b--10b--9b--9vvv---7--9--10--7-----------------------|
|-------------------------------------------------------------|
|-------------------------------------------------------------|
|-------------------------------------------------------------|
|-------------------------------------------------------------|



|--15b--15b--15h16/19--17-19-17--15-17-15-17-17/19--17--15----|
|-------------------------------------------------------------|
|-------------------------------------------------------------|
|-------------------------------------------------------------|
|-------------------------------------------------------------|
|-------------------------------------------------------------|



|-------------------------------------------------------------------|
|----------------------------------------------------12-14-12-14----|
|--14/\/\/-14/\/\/-14/\/\/-14vvv--12-14-12-14-----------------------|
|-------------------------------------------------------------------|
|-------------------------------------------------------------------|
|-------------------------------------------------------------------|



|----------------------------------------------12-15-12-15-12-15-12-15-12-15-|
|--12-13-12b\--10b-9-10b-9-10b\----------------------------------------------|
|----------------------------------------------------------------------------|
|----------------------------------------------------------------------------|
|----------------------------------------------------------------------------|
|----------------------------------------------------------------------------|



|--12-15-12-15-12-14-12-14-12-14-12-14-12-14-12-14-12-14-12-14-|
|--------------------------------------------------------------|
|--------------------------------------------------------------|
|--------------------------------------------------------------|
|--------------------------------------------------------------|
|--------------------------------------------------------------|



|--12-15-12-15-12-15b\--------------------------------------------------|
|--------------------------------12-14-12-14-12-14-12-13\---------------|
|-----------------------------------------------------------------------|
|-----------------------------------------------------------------------|
|-----------------------------------------------------------------------|
|-----------------------------------------------------------------------|



|--------------------------|-----------------|-----------|-----------------|
|--------------------------|-----------------|-----------|-----------------|
|-9--(48x,)----------------|--9--------------|--9--------|-9---------------|
|-9--(-after 16x 2ndguitar)|--9--5-7-5-7-5-2-|--9--(16x)-|-9--5-7-5-7-5-2--|
|-7------------------------|--7--5-7-5-7-5-2-|--7--------|-7--5-7-5-7-5-2--|
|-0------------------------|--0--3-5-3-5-3-0-|--0--------|-0--3-5-3-5-3-0--|



|---------|-------------------------------------|
|---------|-------------------------------------|
|---------|-------------------------------------|
|--5---7--|-------------------2-3-5---5-3-2-----|
|--5---7--|--2-2-3-5---5---------------------5--|
|--3---5--|-------------------------------------|



|--------------------------------------------------------------|
|--------------------------------------------------------------|
|--9--7--9----12-12-12----7-7-7----9-9--7-7--5-5---5-4-5---7---|  % 4x
|--9--7--9----12-12-12----7-7-7----9-9--7-7--5-5---5-4-5---7---|
|--7--5--7----10-10-10----5-5-5----7-7--5-5--3-3---3-2-3---5---|
|--------------------------------------------------------------|



|----------------------------------------|-------|
|----------------------------------------|-------|
|----------------------------------------|-------|
|---------------------2-3-5---5-3-2------|---2---|
|--2-2-3-5---5------------------------5--|---2---|
|----------------------------------------|---0---|




Thats about it, i think most of this is pretty accurate if you have any 
questions or anything better than this please e-mail me, remember before
trying to play this listen to the the song this is mandatory!!!
also, does anyone have any tabs for painkiller or ram it down???



Important: The song above is NOT stored on the Chordie server. The original song is hosted at www.xguitar.com. Chordie works as a search engine and provides on-the-fly formatting. Chordie does not index songs against artists/composers will. To remove this song please click here.

This song is displayed as text-only. Transposing and tuning is only available for chordpro-songs.

Login - add to songbook

Rating click stars to rate

Layout
Accuracy

SHARE PAGE  




You need to log in to post comments