Chordie logo


A Bid Farewell    Killswitch Engage



Band-Killswitch Engage
Song-A Bid Farewell
Album-The End Of Heartache
Instrument-Guitar

Tuning- CGCFAD

Riffs are in order. Just figure out how many times to play them. Also, what
I had tabbed out for the interlude 4 part for gtr. 1 I saw was wrong so I
used the part that the tab from www.mysongbook.com had. Thanks for whoever
tabbed that out.

Intro (Gtr.1)
D|-------------|
A|----------10-|
F|---8---8-----|
C|-0---0-------|
G|-------------|
C|-------------|

Intro (Gtr.2)
D|-------------------------------------|
A|-------------------------------------|
F|-------------------------------------|
C|-000-0-0-0--000-0-0-0--000-0-0-000-3-|
G|-000-0-0-0--000-0-0-0--000-0-0-000-3-|
C|-000-0-0-0--000-0-0-0--000-0-0-000-3-|
pm ... . . .  ... . . .  ... . . ...

Verse (Both Guitars)
D|-------------------------------------------|
A|-------------------------------------------|
F|-------------------------------------------|
C|-------------------------------------------|
G|-------------------------------------------|
C|-000-1/2-0-0--000-1/2-0-0--000-1/2-000-2/3-|
pm ...     . .  ...     . .  ...     ...

Verse Fill
D|------------|
A|------------|
F|------------|
C|------------|
G|------------|
C|-000-1/2-0-0|
pm ...     . .

Verse 2 (Both Guitars)
D|-------------------------------------|
A|-------------------------------------|
F|-------------------------------------|
C|-000-0-0-0--000-0-0-0--000-0-0-000-3-|
G|-000-0-0-0--000-0-0-0--000-0-0-000-3-|
C|-000-0-0-0--000-0-0-0--000-0-0-000-3-|
pm ... . . .  ... . . .  ... . . ...

Verse 3
D|-------------------------------------------|
A|-------------------------------------------|
F|-------------------------------------------|
C|-000-1/2-0-0--000-1/2-0-0--000-1/2-000-2/3-|
G|-000-1/2-0-0--000-1/2-0-0--000-1/2-000-2/3-|
C|-------------------------------------------|
pm ...     . .  ...     . .  ...     ...

Pre-Chorus 1
D|---------------------------------------------------------------------------------|
A|---------------------------------------------------------------------------------|
F|---------------------------------------------------------------------------------|
C|-7-7-7-7-5-5-5-5-3-3-3-3-7-7-7-7-5-5-5-5-3-3-3-3-5-5-5-5-3-3-3-3-2-2-2-2-5-5-5-5-|
G|---------------------------------------------------------------------------------|
C|---------------------------------------------------------------------------------|

Pre-Chorus 1 (Con't)
D|------------------------------------------------------------------|
A|------------------------------------------------------------------|
F|------------------------------------------------------------------|
C|-3-3-3-3-2-2-2-2--2-2-2-2-2-2-3-3-3-3-3-3-5-5-5-3-3-3-3-3-3-3-3-3-|
G|------------------------------------------------------------------|
C|------------------------------------------------------------------|

Pre-Chorus 2
D|-----------------------------------------------------------------------------|
A|-----------------------------------------------------------------------------|
F|-----------------------------------------------------------------------------|
C|-7-7-7-7-5-5-5-5-3-3-3-3-7-7-7-7-5-5-5-5-3-3-3-3-10-10-10-10-7-7-7-7-5-5-5-5-|
G|-----------------------------------------------------------------------------|
C|-----------------------------------------------------------------------------|

Pre-Chorus 2 (Con't)
D|----------------------------------------------------------------------|
A|----------------------------------------------------------------------|
F|----------------------------------------------------------------------|
C|-10-10-10-10-7-7-7-7-5-5-5-5-2-2-2-2-2-2-3-3-3-3-3-3-5-5-3-3-3-3--12\-|
G|------------------------------------------------------------------12\-|
C|------------------------------------------------------------------12\-|

Chorus (Gtr.1)
D|------------------------------------------------------------------------|
A|------------------------------------------------------------------------|
F|-10-9-7-10-9-7--9-7-5-9-7-5--5--7--9--7--10-9-7-10-9-7--12-10-9-12-10-9-|
C|------------------------------------------------------------------------|
G|------------------------------------------------------------------------|
C|------------------------------------------------------------------------|

Chorus (Gtr.1) (Con't)
D|-------------|
A|-------------|
F|--5--7--9--7-|
C|-------------|
G|-------------|
C|-------------|

Chorus Gtr.2
D|----------------------|
A|----------------------|
F|----------------------|
C|-0---3---7---3--0-3-2-|
G|-0---3---7---3--0-3-2-|
C|-0---3---7---3--0-3-2-|
pm                . . .

Verse 2 (Both Guitars)
D|-------------------------------------|
A|-------------------------------------|
F|-------------------------------------|
C|-000-0-0-0--000-0-0-0--000-0-0-000-3-|
G|-000-0-0-0--000-0-0-0--000-0-0-000-3-|
C|-000-0-0-0--000-0-0-0--000-0-0-000-3-|
pm ... . . .  ... . . .  ... . . ...

Verse 3
D|-------------------------------------------|
A|-------------------------------------------|
F|-------------------------------------------|
C|-000-1/2-0-0--000-1/2-0-0--000-1/2-000-2/3-|
G|-000-1/2-0-0--000-1/2-0-0--000-1/2-000-2/3-|
C|-------------------------------------------|
pm ...     . .  ...     . .  ...     ...

Verse Fill 2
D|------------------------------------------------|
A|------------------------------------------------|
F|------------------------------------------------|
C|------------------------------------------------|
G|------------------------------------------------|
C|-2-2-2-3-3-5--2-2-2-3-3-5--2-2-2-3-3-5--2--2-3-0|
pm   . . . . .  . . . . . .  . . . . . .     . . .

Pre-Chorus 1
D|---------------------------------------------------------------------------------|
A|---------------------------------------------------------------------------------|
F|---------------------------------------------------------------------------------|
C|-7-7-7-7-5-5-5-5-3-3-3-3-7-7-7-7-5-5-5-5-3-3-3-3-5-5-5-5-3-3-3-3-2-2-2-2-5-5-5-5-|
G|---------------------------------------------------------------------------------|
C|---------------------------------------------------------------------------------|

Pre-Chorus 1 (Con't)
D|------------------------------------------------------------------|
A|------------------------------------------------------------------|
F|------------------------------------------------------------------|
C|-3-3-3-3-2-2-2-2--2-2-2-2-2-2-3-3-3-3-3-3-5-5-5-3-3-3-3-3-3-3-3-3-|
G|------------------------------------------------------------------|
C|------------------------------------------------------------------|

Pre-Chorus 2
D|-----------------------------------------------------------------------------|
A|-----------------------------------------------------------------------------|
F|-----------------------------------------------------------------------------|
C|-7-7-7-7-5-5-5-5-3-3-3-3-7-7-7-7-5-5-5-5-3-3-3-3-10-10-10-10-7-7-7-7-5-5-5-5-|
G|-----------------------------------------------------------------------------|
C|-----------------------------------------------------------------------------|

Pre-Chorus 2 (Con't)
D|----------------------------------------------------------------------|
A|----------------------------------------------------------------------|
F|----------------------------------------------------------------------|
C|-10-10-10-10-7-7-7-7-5-5-5-5-2-2-2-2-2-2-3-3-3-3-3-3-5-5-3-3-3-3--12\-|
G|------------------------------------------------------------------12\-|
C|------------------------------------------------------------------12\-|

Chorus (Gtr.1)
D|------------------------------------------------------------------------|
A|------------------------------------------------------------------------|
F|-10-9-7-10-9-7--9-7-5-9-7-5--5--7--9--7--10-9-7-10-9-7--12-10-9-12-10-9-|
C|------------------------------------------------------------------------|
G|------------------------------------------------------------------------|
C|------------------------------------------------------------------------|

Chorus (Gtr.1) (Con't)
D|-------------|
A|-------------|
F|--5--7--9--7-|
C|-------------|
G|-------------|
C|-------------|

Chorus Gtr.2
D|----------------------|
A|----------------------|
F|----------------------|
C|-0---3---7---3--0-3-2-|
G|-0---3---7---3--0-3-2-|
C|-0---3---7---3--0-3-2-|
pm                . . .


Interlude 1 (Gtr.1)
D|-------------------------------------------------------------|
A|-------------------------------------------------------------|
F|-------------------------------------------------------------|
C|-------------------------------------------------------------|
G|-------------------------------------------------------0h3h5-|
C|-0-000-0-000-0-000-0-000-0-000-0-000-0-000-0-000-0h3h5-------|
pm   ...   ...   ...   ...   ...   ...   ...   ...

Interlude 2 (Both Guitars)
D|-------------------------------------------------------------|
A|-------------------------------------------------------------|
F|-------------------------------------------------------------|
C|-------------------------------------------------------------|
G|-------------------------0h3h5-------------------------3-----|
C|-0-000-0-000-0-000-0h3h5-------0-000-0-000-0-000-0h3h5---5h3-|
pm   ...   ...   ...               ...   ...   ...

Intderlude 3 (Both Guitars)
D|---------------------------------------|
A|---------------------------------------|
F|---------------------------------------|
C|---------------------------------------|
G|---------------------------------------|
C|-55555555-77777777-8888888888-10101010-| 

Important: The song above is NOT stored on the Chordie server. The original song is hosted at www.xguitar.com. Chordie works as a search engine and provides on-the-fly formatting. Chordie does not index songs against artists/composers will. To remove this song please click here.

This song is displayed as text-only. Transposing and tuning is only available for chordpro-songs.

Login - add to songbook

Rating click stars to rate

Layout
Accuracy

SHARE PAGE  




You need to log in to post comments