Guitar Tabs, Chords and Lyrics


Rose of Sharyn    Killswitch Engage



Band: Killswitch Engage
Song: Rose of Sharyn
Tuning: Drop C
Tabber: Eric C.
Guitarists: Joel Stroetzel (Lead) and Adam Dutkiewicz (Rhythm)
Comments: this is my second tab…the majority of the tabs for this song are right
but they don’t have the harmonized guitar and I watched the video for it and they
play some of the parts in different spots then in the tabs that are up so I figured
I’d post this for the hell of it…I’m not going to do the whole song since the majority
of the tabs are right but I’ll tab most of it..at the one part in the song there are
three guitars so ill tab the third guitar out also even though you don't really need
it...questions or comments you can talk to me on ATTICUScrow55 or email me at
wetwilly1015@aol.com

KEY
. . . - palm mute
h - hammer on
p - pulloff
\ - slide up
* - Pinch Harmonic
v - vibrato


Intro Guitar 1 (Joel)
x2
|---------------------------------------------------------------|
|---------------------------------------------------------------|
|-----------------------------------3-2h3p2---------------------|
|-12\-0-00000-8-7-00000-1-0-00000-0x--------3h5p3---------------|
|-12\-0-00000-6-5-00000-1-0-00000-0x--------------1h3-----------|
|-12\-0-00000-----00000-1-0-00000-0x----------------------------|
        .....     .....     .....

Then (Harmonized)
x2
|--------------------------------------------------------------|
|---------------------------------6-5h6p5----------------------|
|---------8--10-------8-7-----------------5h7h5----------------|
|-0-00000-x--x--00000-x-x-00000-0x--------------5h7p5----------|
|-0-00000-6--8--00000-6-5-00000-0x-----------------------------|
|-0-00000-------00000-----00000-0x-----------------------------|
    .....       .....     .....

|---------------------------------------------------------------------------------|
|---------------------------------------------------------------------------------|
|---------------------------------------------------------------------------------|
|-------------------------------------------------------------------10---10-------|
|--5--7--8--5--7--8--5--7--8--5--7--8--5--7--8--5--7--8--5--7--8-7-8--7-8---------|
|-0--0--0--0--0--0--0--0--0--0--0--0--0--0--0--0--0--0--0--0--0-------------------|
  .  .  .  .  .  .  .  .  .  .  .  .  .  .  .  .  .  .  .  .  .  . .  . .

|------------------------------------------------------------------------------|
|------------------------------------------------------------------------------|
|------------------------------------------------------------------------------|
|-------------------------------------------------------------------10--7\-----|
|--5--7--8--5--7--8--5--7--8--5--7--8--5--7--8--5--7--8--5--7--8-7-8--8-7\-----|
|-0--0--0--0--0--0--0--0--0--0--0--0--0--0--0--0--0--0--0--0--0---------7\-----|
  .  .  .  .  .  .  .  .  .  .  .  .  .  .  .  .  .  .  .  .  .  . .  .

|-------------------------------------------------------------------------|
|-------------------------------------------------------------------------|
|-------------------------------------------------------------------------|
|-1-111111111111-3-333333333333-5-555555555555-8-88888888-888-333---------|
|-1-111111111111-3-333333333333-5-555555555555-8-88888888-888-333---------|
|-1-111111111111-3-333333333333-5-555555555555-8-88888888-888-333---------|
    ............   ............   ............   ........

|-----------------------------------------------------------------------------------|
|-----------------------------------------------------------------------------------|
|-----------------------------------------------------------------------------------|
|-1-111111111111-3-333333333333-5-555555555555-8-88888888--/-----------\------------|
|-1-111111111111-3-333333333333-5-555555555555-8-88888888--/ PICK SLIDE\------------|
|-1-111111111111-3-333333333333-5-555555555555-8-88888888--/------------\-----------|
    ............   ............   ............   ........


|------------------------------------------------------------|
|------------------------------------------------------------|
|--------------------------------3-2h3p2---------------------|
|--0-00000-8-7-00000-1-0-00000-0x--------3h5p3---------------|
|--0-00000-6-5-00000-1-0-00000-0x--------------1h3-----------|
|--0-00000-----00000-1-0-00000-0x----------------------------|
     .....     .....     .....

|-------------------------------------------------------|
|-------------------------------------------------------|
|--------------------------------3-2h3p2----------------|
|--0-00000-8-7-00000-1-0-00000-0x-----------------------|
|--0-00000-6-5-00000-1-0-00000-0x---------*-------------|
|--0-00000-----00000-1-0-00000-0x---------2v------------|
     .....     .....     .....
x2
|--------------------------------------------------------------|
|---------------------------------6-5h6p5----------------------|
|---------8--10-------8-7-----------------5h7h5----------------|
|-0-00000-x--x--00000-x-x-00000-0x--------------5h7p5----------|
|-0-00000-6--8--00000-6-5-00000-0x-----------------------------|
|-0-00000-------00000-----00000-0x-----------------------------|
    .....       .....     .....

Second Harmonized Part x2 (this is the part with the 3rd guitar the tab is down with guitar 2)
|--------------------------------------------------------------------------------|
|--------------------------------------------------------------------------------|
|---------------------------------------------------------------------10----10---|
|---3--5--7--3--5--7--3--5--7--3--5--7--3--5--7--3--5--7--3--5--7--7-8---7-8-----|
|--------------------------------------------------------------------------------|
|-0--0--0--0--0--0--0--0--0--0--0--0--0--0--0--0--0--0--0--0--0------------------|
  .  .  .  .  .  .  .  .  .  .  .  .  .  .  .  .  .  .  .  .  .    . .   . .

**********************************************************************************************************
Intro Guitar 2 (Adam)
x2
|---------------------------------------------------------------|
|---------------------------------------------------------------|
|-----------------------------------3-2h3p2---------------------|
|-12\-0-00000-8-7-00000-1-0-00000-0x--------3h5p3---------------|
|-12\-0-00000-6-5-00000-1-0-00000-0x--------------1h3-----------|
|-12\-0-00000-----00000-1-0-00000-0x----------------------------|
        .....     .....     .....
x2
|--------------------------------------------------------|
|--------------------------------------------------------|
|---------------------------------3-2h3p2----------------|
|-0-00000-8-10-00000-1-0-00000-0x---------3h5p5----------|
|-0-00000-6--8-00000-1-0-00000-0x---------------1h3------|
|-0-00000------00000-1-0-00000-0x------------------------|
    .....      .....     .....

|----------------------------------------------------------|
|----------------------------------------------------------|
|----------------------------------------------------------|
|----------------------------------------------------------|
|----------------------------------------------------------|
|-0-0-0-0-0-0-8-8-8-5-5-5-0-0-0-0-0-0-8-8-8-10-10-10-------|
  . . . . . . . . . . . . . . . . . . . . .  .  .  .
|-----------------------------------------------------------------|
|-----------------------------------------------------------------|
|-----------------------------------------------------------------|
|-------------------------------------------------7\--------------|
|-------------------------------------------------7\--------------|
|-0-0-0-0-0-0-8-8-8-5-5-5-0-0-0-0-0-0-8-8-8-10-10-7\--------------|
  . . . . . . . . . . . . . . . . . . . . .  .  .

|--------------------------------------------------------|
|--------------------------------------------------------|
|-8-8-8-8-8-8-8-8-8-8-8-8-8-8-8-8-8----------------------|
|-x-x-x-x-x-x-x-x-x-x-x-x-x-x-x-x-x--P-A-U-S-E-/12-------|
|-6-6-6-6-6-6-6-6-6-6-6-6-6-6-6-6-6------------/12-------|
|----------------------------------------------/12-------|
    . . . . . . . .       . .

|------------------------------------------------------------|
|------------------------------------------------------------|
|--------------------------------3-2h3p2---------------------|
|--0-00000-8-7-00000-1-0-00000-0x--------3h5p3---------------|
|--0-00000-6-5-00000-1-0-00000-0x--------------1h3-----------|
|--0-00000-----00000-1-0-00000-0x----------------------------|
     .....     .....     .....
|-------------------------------------------------------|
|-------------------------------------------------------|
|--------------------------------3-2h3p2----------------|
|--0-00000-8-7-00000-1-0-00000-0x-----------------------|
|--0-00000-6-5-00000-1-0-00000-0x---------*-------------|
|--0-00000-----00000-1-0-00000-0x---------2v------------|
     .....     .....     .....
x2
|--------------------------------------------------------|
|--------------------------------------------------------|
|---------------------------------3-2h3p2----------------|
|-0-00000-8-10-00000-1-0-00000-0x---------3h5p5----------|
|-0-00000-6--8-00000-1-0-00000-0x---------------1h3------|
|-0-00000------00000-1-0-00000-0x------------------------|
    .....      .....     .....
x2
|---------------------------------------------------------------------------------|
|---------------------------------------------------------------------------------|
|---------------------------------------------------------------------------------|
|-------------------------------------------------------------------10---10-------|
|--5--7--8--5--7--8--5--7--8--5--7--8--5--7--8--5--7--8--5--7--8-7-8--7-8---------|
|-0--0--0--0--0--0--0--0--0--0--0--0--0--0--0--0--0--0--0--0--0-------------------|
  .  .  .  .  .  .  .  .  .  .  .  .  .  .  .  .  .  .  .  .  .  . .  . .

Guitar 3 plays this x2
|----------------------------------------------------------|
|----------------------------------------------------------|
|----------------------------------------------------------|
|----------------------------------------------------------|
|----------------------------------------------------------|
|-0-0-0-0-0-0-8-8-8-5-5-5-0-0-0-0-0-0-8-8-8-10-10-10-------|
  . . . . . . . . . . . . . . . . . . . . .  .  .  .




Important: The song above is NOT stored on the Chordie server. The original song is hosted at www.xguitar.com. Chordie works as a search engine and provides on-the-fly formatting. Chordie does not index songs against artists'/composers' will. To remove this song please click here.

This song is displayed as text-only. Transposing and tuning is only available for chordpro-songs.

Login - add to songbook

Rating click stars to rate

Layout
Accuracy

SHARE PAGE  




You need to log in to post comments