Guitar Tabs, Chords and Lyrics


Juke Joint Jezebel    Kmfdm



Juke Joint Jezebel      by KMFDM
                        from the album "Nihil"
                        words and music by En Esch, Sascha Konietzko,
                                Gunter Schultz and Raymond Watts
                        tabbed by Tom Mallon
 
Main Bass Line
G -----------------------
D --2-2-2-2-2-2-2-2-0----
A -----------------------
E -----------------------
 
Intro Guitar
E ------------------------------
B ------------------------------
G ------------------------------
D --2----5----4----6------6/7---
A --2----5----4----6------6/7---
E --0----3----2----4------4/5---
 
Prechorus Guitar
E --------------------------------------------------------------------
B ----------------------------------------7---------------------------
G --9------------101010-----\-7------------------7-----7--------------
D --9------------101010-----\-7----------------------------7^---------
A --7------------8-8-8------\-5-------5-------5-----5-----------------
E --------------------------------------------------------------------
                                                       ^i think
 
Chorus Guitar            
E -----------------------------------------------
B -----------------------------------------------
G --9-----------7\6-7\6--7~~~~-------------------
D --9-----------7\6-7\6--6~~~~-------------------
A --7-----------5\4-5\4--5~~~~--------5h7--5h8---
E -----0-0-0-0----------------0-0-0-0------------
       x x x x                x x x x
E -----------------------------------------------
B -----------------------------------------------
G --9-----------7\6-7\6--7~~~~-------------------
D --9-----------7\6-7\6--6~~~~--------6p4--------
A --7-----------5\4-5\4--5~~~~-------------5h7---
E -----0-0-0-0----------------0-0-0-0------------
       x x x x                x x x x
 
Bridge (2:55)
E ---------------------------------------
B ---------------------------------------
G ---------------------------------------
D --2-2--5/9----5/8--------5/7------5\4--
A --2-2--5/9----5/8--------5/7------5\4--
E --0-0--3/7--0-3/6--0-0-0-3/5--0-0-3\2--
    x x       x      x x x      x x
 
There is another riff underneath the last verse that I think is made up of
palm-muted open E's and the hammer on parts from the chorus. I'm not sure 
exactly how it goes, though, because it is kinda hard to hear on the 
recording.
 
Outro
E |-----------------------------------|-------
B |-----------------------------------|-------
G |.---------------------------------.|-------
D |.----5/9----5/8-------2--5--4--7--.|--8\7--
A |-----5/9----5/8-------2--5--4--7---|--8\7--
E |---0-3/7--0-3/6--0-3--0--3--2--5---|--6\5--
      x      x      x x
 
palm mute= x
slide=     / or \
string bend= ^
hammer-on= 5h7
pull-off=  6hp
trill/vibrato= ~


Important: The song above is NOT stored on the Chordie server. The original song is hosted at www.xguitar.com. Chordie works as a search engine and provides on-the-fly formatting. Chordie does not index songs against artists'/composers' will. To remove this song please click here.

This song is displayed as text-only. Transposing and tuning is only available for chordpro-songs.

Login - add to songbook

Rating click stars to rate

Layout
Accuracy

SHARE PAGE  




You need to log in to post comments