Guitar Tabs, Chords and Lyrics


Evil Inside    Lake Of Tears



Author/Artist: Lake of Tears
Title: Evil Inside
Album: Greater Art

Please mail me any corrections !

Standard tuning.

RIFF 1      Intro & Verse         *Play this F# only in the verse

|--------------------------------|---|
|--------------------------------|---|
|--------------------------------|*--|
|--5--------5-5-8--5--5-5-5-8--3-|3--|
|--5--------5-5-8--5--5-5-5-8--3-|1--|
|--3--------3-3-6--3--3-3-3-6--1-|1--|


RIFF 2    Refrain

|------------------------------------------|
|------------------------------------------|
|------------------------------------------|
|--10-9--7--5--7--3--77--55--7-5-8-7-------|
|--8--7--5--3--5--1--55--33--5-3-6-5-------|
|------------------------------------------|
    "theres a little bit of evil ... "

RIFF 3   Outro

|--------------------------------------------------|
|--------------------------------------------------|
|--------------------------------------------------|
|-77-7-5-7-8-7-77-7--77-5--55-5-3-5-6-5-55-5--55-7-|
|-55-----------55-5--55-3--33-----------33-3--33-5-|


Important: The song above is NOT stored on the Chordie server. The original song is hosted at www.xguitar.com. Chordie works as a search engine and provides on-the-fly formatting. Chordie does not index songs against artists'/composers' will. To remove this song please click here.

This song is displayed as text-only. Transposing and tuning is only available for chordpro-songs.

Login - add to songbook

Rating click stars to rate

Layout
Accuracy

SHARE PAGE  




You need to log in to post comments