Guitar Tabs, Chords and Lyrics


Battlefield of Love   Lenny Kravitz



Lenny Kravitz - Battlefield Of Love


-||-----------||-------------------------------------------||
-||-----------||-------------------------------------------||
-||-----------||--7----------------------7----------7/9\\7--||
-||--x-/--9---||--7---9--9---------------7---9--9---7/9\\7--||
-||--x-/--9---||--5---9--9---------------5---9--9---5/7\\5--||
-||--x-/--7---||------7--7--5-7-5-7-5-7------7--7----------||



wah-wah guitar for chorus:
-||---------------------------------|-------------------------------|| play
-||--7--x-x-x--7--7--9--x-x-x--9--9-|----6b----------6b-------------|| twice
-||--7--x-x-x--7--7--9--x-x-x--9--9-|-------------------------------||
-||---------------------------------|--half step bends--------------||
-||---------------------------------|-------------------------------||
-||---------------------------------|-------------------------------||


solo:
-||---------------------------------------------------------------------------
-||-12~~v~~-12b--15~~v~~--14--10--12~~v~~----10-\\(5)(5)/7~~----7^-------------
-||---------------------------------------------------------------------------
-||---------------------------------------------------------------------------
-||---------------------------------------------------------------------------
-||------------------------------------------------------------harmonic-------


-||--------------------------|------------------------------------------------
-||-----------15-17-15-------|--17b--17b--17b--17b-17b-15/17\\15v-----15\\10/12-
-||--14/16-14----------16----|------------------------------------------------
-||--------------------------|------------------------------------------------
-||-blah-blah with wah-wah---|------------------------------------------------
-||-play it few times--------|------------------------------------------------

                                                          ends with:
-||---------------------------------------------24--------|-------------------
-||-19b--19pb-19-17-15-17-19-..it's obvious...------15----|-------------------
-||-------------------------------------------------------|--16v(w/bar)-------
-||----------------------------------------------------52-|-------------------
-||-------------------------------------------------------|-----------14------
-||--------------------------------------------1----------|-------------------


at the and of the song:
-||---------------------------------------------------------------------------
-||--7-7-7....---7-----9--9--9-....---7-----7-7-7....-------------------------
-||--7-7-7....---------10-10-10....---------7-7-7....-------------------------
-||---------------------------------------------------------------------------
-||---------------------------------------------------------------------------
-||---------------------------------------------------------------------------




Important: The song above is NOT stored on the Chordie server. The original song is hosted at www.xguitar.com. Chordie works as a search engine and provides on-the-fly formatting. Chordie does not index songs against artists/composers will. To remove this song please click here.

This song is displayed as text-only. Transposing and tuning is only available for chordpro-songs.

Login - add to songbook

Rating click stars to rate

Layout
Accuracy

SHARE PAGE  




You need to log in to post comments