Guitar Tabs, Chords and Lyrics


Faction    Less Than Jake



-------------------------------------------------------------------------------
                            FACTION - Less Than Jake
-------------------------------------------------------------------------------

By: Dan Kloza jonkay@monouth.com
check out my website for LTJ Tabs
from all albums at: members.nbci.com/ltjdan

Intro PT1 (x4)
e|----------------------------------|
B|----------------------------------|
G|----7-7-7-7-7-7-7-7-7-7-7-7-------|
D|-5--7-7-7-7-7-7-7-7-7-7-7-7-------|
A|-5--5-5-5-5-5-5-5-5-5-5-5-5-------|
E|-3--------------------------------|

Intro PT2 (x1)
e|----------------------------------|
B|----------------------------------|
G|-----------x-7-x-7-7--------------|
D|-x-5-x-5-5-x-7-x-7-7--------------|
A|-x-5-x-5-5-x-5-x-5-5--------------|
E|-x-3-x-3-3------------------------|

Intro PT3 (x3)
e|-5---5-----7---7---7--5-----------|
B|---5-----7---5---5------7---------|
G|----------------------------------|
D|----------------------------------|
A|----------------------------------|
E|----------------------------------|

Intro PT2 (x1)

Intro PT4 (x2)
e|--------------------------------------------------|
B|--------------------------------------------------|
G|----------77777777-99999999-----------x-7-x-7-7---|
D|-55555555-77777777-99999999-x-5-x-5-5-x-7-x-7-7---|
A|-55555555-55555555-77777777-x-5-x-5-5-x-5-x-5-5---|
E|-33333333-------------------x-3-x-3-3-------------|

Verse-Clean Ska-Upstroke (x2)
e|-3-3-x-3-x-3-x-3-x-3-x-3-3~--5-5-x-5-x-5-x-5-x-5-x-5-5~--|
B|-3-3-x-3-x-3-x-3-x-3-x-3-3~--7-7-x-7-x-7-x-7-x-7-x-7-7~--|
G|-4-4-x-4-x-4-x-4-x-4-x-4-4~--7-7-x-7-x-7-x-7-x-7-x-7-7~--|
D|-5-5-x-5-x-5-x-5-x-5-x-5-5~--5-5-x-5-x-5-x-5-x-5-x-5-5~--|
A|-5-5-x-5-x-5-x-5-x-5-x-5-5~--5-5-x-5-x-5-x-5-x-5-x-5-5~--|
E|-3-3-x-3-x-3-x-3-x-3-x-3-3~--5-5-x-5-x-5-x-5-x-5-x-5-5~--|
And I, wonder if you'd understand...

Verse-Clean Ska-Upstroke (cont.)
e|-7-7-x-7-x-7-x-7-x-7-x-7-7~--3-3-x-3-x-3-x-3-x-3-x-3-3~--|
B|-9-9-x-9-x-9-x-9-x-9-x-9-9~--5-5-x-5-x-5-x-5-x-5-x-5-5~--|
G|-9-9-x-9-x-9-x-9-x-9-x-9-9~--5-5-x-5-x-5-x-5-x-5-x-5-5~--|
D|-7-7-x-7-x-7-x-7-x-7-x-7-7~--3-3-x-3-x-3-x-3-x-3-x-3-3~--|
A|-7-7-x-7-x-7-x-7-x-7-x-7-7~--3-3-x-3-x-3-x-3-x-3-x-3-3~--|
E|-7-7-x-7-x-7-x-7-x-7-x-7-7~--3-3-x-3-x-3-x-3-x-3-x-3-3~--|
*NOTE: on the second time through the progression, strum the last chord
a few more times into the chorus.

Chorus (x2)
e|--------------------------------------------------|
B|--------------------------------------------------|
G|----------77777777-99999999-----------x-7-x-7-7---|
D|-55555555-77777777-99999999-x-5-x-5-5-x-7-x-7-7---|
A|-55555555-55555555-77777777-x-5-x-5-5-x-5-x-5-5---|
E|-33333333-------------------x-3-x-3-3-------------|
Sometimes you just want...

After Chorus (x2) Use Ska Upstrokes w/ light distortion.
e|-x-3-x-3-x-3-x-3-x-5-x-5-x-5-x-5-x------x-2-x-2-x-3-x-3--|
B|-x-3-x-3-x-3-x-3-x-7-x-7-x-7-x-7-x------x-3-x-3-x-5-x-5--|
G|-x-4-x-4-x-4-x-4-x-7-x-7-x-7-x-7-x-9~~--x-2-x-2-x-5-x-5--|
D|-x-5-x-5-x-5-x-5-x-5-x-5-x-5-x-5-x-9~~--x-2-x-2-x-3-x-3--|
A|-x-5-x-5-x-5-x-5-x-5-x-5-x-5-x-5-x-7~~--x-2-x-2-x-3-x-3--|
E|-x-3-x-3-x-3-x-3-x-5-x-5-x-5-x-5-x------x-2-x-2-x-3-x-3--|

Verse (x2)
Chorus (x4)

Then..(palm mute w/ clean guitar)
e|--------------------------------------------------------------------|
B|--------------------------------------------------------------------|
G|--------------------------------------------------------------------|
D|--------------------------------------------------------------------|
A|-----------------5-5-5-5-5-5-5-7-7-7-7-7-7-7-7-7-3-3-3-3-3-3-3-3-3--|
E|-3-3-3-3-3-3-3-3----------------------------------------------------|
So strike a match....

Then..(Distortion kicks in)
e|------------------------------------------|
B|------------------------------------------|
G|--------7x-7x----------5~~~---------------|
D|-5x-5x--7x-7x----------5~~~---------------|
A|-5x-5x--5x-5x----------3~~~---------------|
E|-3x-3x------------------------------------|
So strike a match.....

Chorus (x6)



Important: The song above is NOT stored on the Chordie server. The original song is hosted at www.xguitar.com. Chordie works as a search engine and provides on-the-fly formatting. Chordie does not index songs against artists'/composers' will. To remove this song please click here.

This song is displayed as text-only. Transposing and tuning is only available for chordpro-songs.

Login - add to songbook

Rating click stars to rate

Layout
Accuracy

SHARE PAGE  




You need to log in to post comments