Guitar Tabs, Chords and Lyrics


N 2 Gether Now   Limp Bizkit



Artist: Limp Bizkit 
Song: N 2 Gether Now
Album: Significant Other

Tab Property Of Total Limp Bizkit - www.totalbizkit.org

Intro 
C#------------------------------17------17------17------17----- 
G#------------------------------18------18------18------18----- 
E----19---19---19-19---19-------19--19--19--19--19--19--19----- 
B----19---19---19-19---19-------19------19------19------19----- 
F#---20---20---20-20---20-------------------------------------- 
C#------------------------------------------------------------- 

Verse 
C#------------------------------17------17--------------------- 
G#--------------18--------------18------18------20--18--17----- 
E----19---------19--------------19------19--------------------- 
B----19---------19--------------19------19--------------------- 
F#---20-------------------------------------------------------- 
C#------------------------------------------------------------- 


Important: The song above is NOT stored on the Chordie server. The original song is hosted at www.xguitar.com. Chordie works as a search engine and provides on-the-fly formatting. Chordie does not index songs against artists'/composers' will. To remove this song please click here.

This song is displayed as text-only. Transposing and tuning is only available for chordpro-songs.

Login - add to songbook

Rating click stars to rate

Layout
Accuracy

SHARE PAGE  




You need to log in to post comments