Guitar Tabs, Chords and Lyrics


Re-arranged   Limp Bizkit



Song: Re-Arranged
Band: Limp Bizkit
Album: Significant Other
Transcribed By: Samuli Sorri

Tuning: Tune your guitar down one and a half steps (C#,F#,B,E,G#,C#)
     VERSE:
 
   C#|-3p0-0-0-3p0-0-0-0-0-|-7----7-00-8-|
   G#|---------------------|-------------|
    E|---------------------|-------------|
    B|---------------------|-------------|
   F#|---------------------|-------------|
   C#|---------------------|-------------|
  
     CHORUS:
 
   C#|-----------------------------|
   G#|-----------------------------| 
    E|-----------------------------|
    B|-----------------------------| 
   F#|-----------------------------| 
   C#|-0h12-0-0-0h15-0-0-0-0-0-0-0-| 
  
     BRIDGE:
 
   C#|-------12---------------10------14----14/15-| 
   G#|--------------------------------------------| 
    E|-11/12-----11/12-9--9\7------11----11-------| (something 
    B|--------------------------------------------| like that) 
   F#|--------------------------------------------| 
   C#|--------------------------------------------| 

   C#|-------------------|-------------|
   G#|-------------------|-------------|
    E|-4-4--4-5--2-2-6-6-|---4-4/5-5\4-|
    B|-2-2--2-2--0-0-4-4-|-2-let-ring--| 
   F#|-------------------|-------------|
   C#|-------------------|-------------|
  



Important: The song above is NOT stored on the Chordie server. The original song is hosted at www.xguitar.com. Chordie works as a search engine and provides on-the-fly formatting. Chordie does not index songs against artists/composers will. To remove this song please click here.

This song is displayed as text-only. Transposing and tuning is only available for chordpro-songs.

Login - add to songbook

Rating click stars to rate

Layout
Accuracy

SHARE PAGE  




You need to log in to post comments