Chordie logo


Don't Stay   Linkin Park



E-----------------------------------------------
B-----------------------------------------------
G-----------------------------------------------
D----0------2----------------------------------- Repeat this 11 times, then 
A--2---2-3---3---------------------------------- next….
E-----------------------------------------------

E-----------------------------------------------
B-----------------------------------------------
G-----------------------------------------------
D----0------------------------------------------ This once, then…
A--2---2--3-------------------------------------
E-----------------------------------------------
Chorus
E-----------------------------------------------
B-----------------------------------------------
G-----------------------------------------------
D-----------0-2-4-2--2-2--4-2------------------- Repeat this 4 time then go 
A--2--2-2------------------------3-------------- straight into the next one
E-----------------------------------------------

E-----------------------------------------------
B-----------------------------------------------
G-----------------------------------------------
D----0------2----------------------------------- Repeat this 5 times…
A--2---2-3---3----------------------------------
E-----------------------------------------------

E-----------------------------------------------
B-----------------------------------------------
G-----------------------------------------------
D----0------------------------------------------ Then this once more, then… 
A--2---2-3--------------------------------------
E-----------------------------------------------

E-----------------------------------------------
B-----------------------------------------------
G-----------------------------------------------
D----0------2----------------------------------- Repeat this 3 times, then…
A--2---2-3---3----------------------------------
E-----------------------------------------------
Chorus
E-----------------------------------------------
B-----------------------------------------------
G-----------------------------------------------
D----------0-2-4-2--2-2-4-2--------------------- Repeat this 4 times
A--2--2-2---------------------3-----------------
E-----------------------------------------------

E-----------------------------------------------
B-----------------------------------------------
G-----------------------------------------------
D-----0------2---------------------------------- Repeat this 3 times, then…
A--2----2-3---3---------------------------------
E-----------------------------------------------

E-----------------------------------------------
B-----------------------------------------------
G-----------------------------------------------
D----0------------------------------------------ Then play this once more, 
A--2---2-3-------------------------------------- then…
E-----------------------------------------------

E----------------------------------------------------------------------------------
B----------------------------------------------------------------------------------
G----------------------------------------------------------------------------------
D------0--------2-------4--------2-------0---------2--------4--------4---2---0---2- 
A--2-----0-2----0-2-----0-2-----0-2------0-2------0-2--------0-2-------------------
E----------------------------------------------------------------------------------
Play this once, then…
Chorus
E-----------------------------------------------
B-----------------------------------------------
G-----------------------------------------------
D-----------0-2-4-2--2-2-4-2-------------------- Repeat this 4 times then go 
A--2--2-2-----------------------3--------------- straight into the next one
E-----------------------------------------------

E-----------------------------------------------
B-----------------------------------------------
G-----------------------------------------------
D----0------2----------------------------------- Repeat this 3 times, then the  
A--2---2-3---3---------------------------------- last thing is next…
E-----------------------------------------------

E-----------------------------------------------
B-----------------------------------------------
G-----------------------------------------------
D----0------------------------------------------
E--2---2-3--3-----------------------------------
A-----------------------------------------------

This is an awesome song than Linkin Park has made! You just might want to 


Important: The song above is NOT stored on the Chordie server. The original song is hosted at www.xguitar.com. Chordie works as a search engine and provides on-the-fly formatting. Chordie does not index songs against artists/composers will. To remove this song please click here.

This song is displayed as text-only. Transposing and tuning is only available for chordpro-songs.

Login - add to songbook

Rating click stars to rate

Layout
Accuracy

SHARE PAGE  




You need to log in to post comments