Chordie logo


Figure.09   Linkin Park



linkin park
figure 09
Intro
eb-------------------------------------------------------
Bb-------------------------------------------------------
Gb-------------------------------------------------------
Db-------------------------------------------------------
Ab----------8----------8----------8----5h6-5h6---5h6-----
Db-----0-------0-------0------------------------

(continued)
eb-------------------------------------------------------
Bb-------------------------------------------------------
Gb-------------------------------------------------------
Db-------------------------------------0h1-1-1-1--0h1----
Ab----------8----------8----------8----0h1-1-1-1--0h1----
Db-----0-------0-------0------0h1-1-1-1--0h1----
first riff
eb-------------------------------------------------------
Bb-------------------------------------------------------
Gb-------------------------------------------------------
Db--0-------5---0-------5---0-------5---0h1-1-1-1--0h1---
Ab--0-------3---0-------3---0-------3---0h1-1-1-1--0h1---
Db--0----3---0----3---0----3---0h1-1-1-1--0h1---
Verse
eb--------------------------------------------------------
Bb--------------------------------------------------------
Gb--------------------------------------------------------
Db--0-----------0-----------0-----------0h1-1-1-1--0h1----
Ab--0-----------0-----------0-----------0h1-1-1-1--0h1----
Db--0--------0--------0--------0h1-1-1-1--0h1----
secondriff
eb-----------------------------------------------------
Bb-----------------------------------------------------
Gb---------8-----------8----------8-----------8--------
Db--0--0---8----0--0---8---0--0---8----0--0---8--------
Ab--0--0---6----0--0---6---0--0---6----0--0---6--------
Db--0--0--------0--0-------0--0--------0--0------------
Chorus
eb------------------------------------------------
Bb------------------------------------------------
Gb------------------------------------------------
Db--0-0-0-0--8-8-10-8--5-5-5-5--7-7-7--9-9-9------
Ab--0-0-0-0--8-8--8-8--5-5-5-5--7-7-7--9-9-9------
Db--0-0-0-0--8-8--8-8--3-3-3-3--5-5-5--7-7-7------

Post-Chorus
eb-----------------------------------------------------------
Bb-----------------------------------------------------------
Gb-----------------------------------------------------------
Db--0-0-0-0--8-8-10-8--3-3-3-3--5-5--3-3-3-3-3-3-3-3-3-3-3-3-
Ab--0-0-0-0--8-8--8-8--3-3-3-3--5-5--3-3-3-3-3-3-3-3-3-3-3-3-
Db--0-0-0-0--8-8--8-8--3-3-3-3--5-5--1-1-1-1-1-1-1-1-1-1-1-1-
Bridge
eb-----------------------------------------------------------
Bb-----------------------------------------------------------
Gb-----------------------------------------------------------
Db--1--0--x-x-x--0-2-3---4----1--0--x-x-x--0-2-3---0---------
Ab--1--0--x-x-x--0-2-3--------1--0--x-x-x--0-2-3-------------
Db--1--0--x-x-x--0-2-3--------1--0--x-x-x--0-2-3-------------

(continued)
eb-----------------------------------------------------------
Bb-----------------------------------------------------------
Gb-----------------------------------------------------------
Db--1--0--x-x-x--0-2-3---4----1--0--x-x-x--0-2-3--x-x-x------
Ab--1--0--x-x-x--0-2-3--------1--0--x-x-x--0-2-3--x-x-x------
Db--1--0--x-x-x--0-2-3--------1--0--x-x-x--0-2-3--x-x-x------
Intro
Riff 1
Verse
Riff 2
Chorus
Verse
Riff 1
Riff 2
Chorus
Post-Chorus
Riff 2
Bridge
Chorus
Post-Chorus


Important: The song above is NOT stored on the Chordie server. The original song is hosted at www.xguitar.com. Chordie works as a search engine and provides on-the-fly formatting. Chordie does not index songs against artists/composers will. To remove this song please click here.

This song is displayed as text-only. Transposing and tuning is only available for chordpro-songs.

Login - add to songbook

Rating click stars to rate

Layout
Accuracy

SHARE PAGE  




You need to log in to post comments