Guitar Tabs, Chords and Lyrics


Habib   Lit



Intro: (00:11)   Drpoped D tuning(eBGDAD)  I think my guitar was a half step high.

e--------------------------------------------------------------------------------------------------
B-3-----------------------------------------------------------------------------------------------
G--2-------------------4--5-4h5h4------------------------4-5---7b---5b4--------------------
D---0-------------5-6----------------5--6-5----------5-6--------------------5-6-5--3--5-----
A-----0-------------------------------------------------------------------------------------------
D-----0-------------------------------------------------------------------------------------------

(00:28)											
e--------------------------------------------------------------------------------------------------|
B-------------------------------------------------------------------------------------------------|
G-------------------------------------------------------------------------------------------------|
D-6-6-6---5-5-5---6-6-6---5-5-5--6-6--5-5--6-6-6---5-5-5---6-6-6---5-5-5--6-8-6-5-|   x4
A-------------------------------------------------------------------------------------------------|
D-------------------------------------------------------------------------------------------------|

(00:49)
e----------------------------------------------------------------------------------------------------------------|
B---------------------------------------------------------------------------------------------------------------|
G---------------------------------------------------------------------------------------------------------------|
D-1--1-1-1---1----1-1-1---1--/---1----1-1-1---1----1-1-1---1----/----1---1-1-1---1----1-1-1-----1--|
A-1--1-1-1---1----1-1-1---1--/---1----1-1-1---1----1-1-1---1----/----1---1-1-1---1----1-1-1-----1--|
D-1--1-1-1---1----1-1-1---1--/---1----1-1-1---1----1-1-1---1---/-----1---1-1-1---1----1-1-1-----1--|

e----------------------------------------------------|
B---------------------------------------------------|
G---------------------------------------------------|
D-6-6-6---5-5-5---6-6-6---5-5-5---6-6--5-5--|
A---------------------------------------------------|
D---------------------------------------------------|

e----------------------------------------------------------------------------------------------------------------|
B---------------------------------------------------------------------------------------------------------------|
G---------------------------------------------------------------------------------------------------------------|
D-1--1-1-1---1----1-1-1---1--/---1----1-1-1---1----1-1-1---1----/----1---1-1-1---1----1-1-1-----1--|
A-1--1-1-1---1----1-1-1---1--/---1----1-1-1---1----1-1-1---1----/----1---1-1-1---1----1-1-1-----1--|
D-1--1-1-1---1----1-1-1---1--/---1----1-1-1---1----1-1-1---1---/-----1---1-1-1---1----1-1-1-----1--|

e--------------------------------------------------------------------------------------------------|
B-------------------------------------------------------------------------------------------------|
G-------------------------------------------------------------------------------------------------|
D-6-6-6---5-5-5---6-6-6---5-5-5--6-6--5-5--6-6-6---5-5-5---6-6-6---5-5-5--6-8-6-5-|
A-------------------------------------------------------------------------------------------------|
D-------------------------------------------------------------------------------------------------|

(01:11)
e-----------------------------------------------------------------------------------------------------------|
B----------------------------------------------------------------------------------------------------------|
G----------------------------------------------------------------------------------------------------------|
D------------------------------------10---10-10----10---10-10----10-----10-10----10--10-10--|  x2
A------------------------------------10---10-10----10---10-10----10-----10-10----10--10-10--|
D-10--------------8--10--------------10---10-10----10---10-10----10-----10-10----10--10-10--|

(01:32)
e----------------------------------------------------------------------------------------------------------------|
B---------------------------------------------------------------------------------------------------------------|
G---------------------------------------------------------------------------------------------------------------|
D-1--1-1-1---1----1-1-1---1--/---1----1-1-1---1----1-1-1---1----/----1---1-1-1---1----1-1-1-----1--|
A-1--1-1-1---1----1-1-1---1--/---1----1-1-1---1----1-1-1---1----/----1---1-1-1---1----1-1-1-----1--|
D-1--1-1-1---1----1-1-1---1--/---1----1-1-1---1----1-1-1---1---/-----1---1-1-1---1----1-1-1-----1--|

e----------------------------------------------------|
B---------------------------------------------------|
G---------------------------------------------------|
D-6-6-6---5-5-5---6-6-6---5-5-5---6-6--5-5--|
A---------------------------------------------------|
D---------------------------------------------------|

e----------------------------------------------------------------------------------------------------------------|
B---------------------------------------------------------------------------------------------------------------|
G---------------------------------------------------------------------------------------------------------------|
D-1--1-1-1---1----1-1-1---1--/---1----1-1-1---1----1-1-1---1----/----1---1-1-1---1----1-1-1-----1--|
A-1--1-1-1---1----1-1-1---1--/---1----1-1-1---1----1-1-1---1----/----1---1-1-1---1----1-1-1-----1--|
D-1--1-1-1---1----1-1-1---1--/---1----1-1-1---1----1-1-1---1---/-----1---1-1-1---1----1-1-1-----1--|

e--------------------------------------------------------------------------------------------------|
B-------------------------------------------------------------------------------------------------|
G-------------------------------------------------------------------------------------------------|
D-6-6-6---5-5-5---6-6-6---5-5-5--6-6--5-5--6-6-6---5-5-5---6-6-6---5-5-5--6-8-6-5-|
A-------------------------------------------------------------------------------------------------|
D-------------------------------------------------------------------------------------------------|

e-----------------------------------------------------------------------------------------------------------|
B----------------------------------------------------------------------------------------------------------|
G----------------------------------------------------------------------------------------------------------|
D------------------------------------10---10-10----10---10-10----10-----10-10----10--10-10--|  x2
A------------------------------------10---10-10----10---10-10----10-----10-10----10--10-10--|
D-10--------------8--10--------------10---10-10----10---10-10----10-----10-10----10--10-10--|



(02:15)
e---------------------------------------------------------------------|
B--------------------------------------------------------------------|
G--------------------------------------------------------------------|
D--10------8------8-10-8---1--1-1---1---1-1--1---1-1---1-1--|    x2
A--10------8---------------1--1-1---1---1-1--1---1-1---1-1--|
D--10------8---------------1--1-1---1---1-1--1---1-1---1-1--|

(02:33)
e--------------------------------
B-3-----------------------------
G-2-----------------------------
D-0----------5h6h5--3-5-----
A-0-----------------------------
D-0-----------------------------

Solo (02:42)         (The solo is too distorted to figure out, so I improvised  a little)
e-------------------------------------------------------------------------------------------------------------------|
B------------------------------------------------------------------------------------------------------------------|
G----------------------------------------------------------------------------------------------------------|
D-12---10-12------15----15-------------------------------------17--17-17-----------------------------------|
A----------------------------------12---10-----11--14--15--17------------------------------------------------|
D------------------------------------------------------------------------------------------------------------------|

e--------------------------------------------------------------------------------|
B------------------------20-20-20----20-20-20----20-20-20----20-20-20---20-20-20-|
G-17---15----19-----15-----------------------------------------------------------|
D--------------------------------------------------------------------------------|
A--------------------------------------------------------------------------------|
D--------------------------------------------------------------------------------|

(03:03)
e-----------------------------------------------------------------------------------------------------------|
B----------------------------------------------------------------------------------------------------------|
G----------------------------------------------------------------------------------------------------------|
D------------------------------------10---10-10----10---10-10----10-----10-10----10--10-10--|  x2
A------------------------------------10---10-10----10---10-10----10-----10-10----10--10-10--|
D-10--------------8--10--------------10---10-10----10---10-10----10-----10-10----10--10-10--|

e---------------------------------------------------------------------|
B--------------------------------------------------------------------|
G--------------------------------------------------------------------|
D--10------8------8-10-8---1--1-1---1---1-1--1---1-1---1-1--|    x4
A--10------8---------------1--1-1---1---1-1--1---1-1---1-1--|
D--10------8---------------1--1-1---1---1-1--1---1-1---1-1--|

(03:58)
e--------------------------------------------------------------------------------|
B-3-----------------------------------------------------------------------------|
G--2-------------------4--5-4h5h4-------------------------------------------|
D-----------------5-6----------------5--6-5------5h6h5--3--5--------------|
A-------------------------------------------------------------------------------|
D-------------------------------------------------------------------------------|

Thanks for reading my tab.  I hope you enjoy playing it.


Important: The song above is NOT stored on the Chordie server. The original song is hosted at www.xguitar.com. Chordie works as a search engine and provides on-the-fly formatting. Chordie does not index songs against artists/composers will. To remove this song please click here.

This song is displayed as text-only. Transposing and tuning is only available for chordpro-songs.

Login - add to songbook

Rating click stars to rate

Layout
Accuracy

Jango Player

SHARE PAGE  




You need to log in to post comments