Chordie logo

User Friendly   Marilyn Manson



Song: User Friendly
Artist: Marilyn Manson
Album: Mechanical Animals
As tabbed by Joe Muggah

Bass-Verse
e-------------------------------------------------------
B-------------------------------------------------------
G-------------------------------------------------------
D---------4---------------------------------------------
A---7-5-----5-7-----7-5---------------------------------
E-0-----7---------0-----6-5---5-3-----------------------
("Use me...")

Pre-Chorus (possibly an octave higher)
e-------------------------------------------------------
B-15\12---17\12---19\12---15\12---17\12---19\12-12------
G-------------------------------------------------------
D-------------------------------------------------------
A-------------------------------------------------------
E-------------------------------------------------------
("User friendly...")

Chorus A (Guitar 1)
e-------------------------------------------------------
B-------------------------------------------------------
G-4-4-4-4-4-4-4-4--6-6-6-6--7-7--9-9--------------------
D-4-4-4-4-4-4-4-4--6-6-6-6--7-7--9-9--------------------
A-2-2-2-2-2-2-2-2--4-4-4-4--5-5--7-7--------------------
E-------------------------------------------------------
("She says, I'm not in love...")

Chorus B (Guitar 2)                        end on
e-------------12--14--------------12--10--|-------------
B-12--11--10----------12--11--10----------|-12----------
G-----------------------------------------|-----10^\9---
D-----------------------------------------|-------------
A-----------------------------------------|-------------
E-----------------------------------------|-------------

Post-Chorus
e-------------------------------------------------------
B-------------------------------------------------------
G-9-9--9-9---11-11--11-11-------------------------------
D-9-9--9-9---11-11--11-11-------------------------------
A-7-7--7-7----9--9---9--9-------------------------------
E-------------------------------------------------------

Break
e-7--------10---7--------7------------------------------
B----7--8----------7--7---------------------------------
G---------------------------9--7------------------------
D-------------------------------------------------------
A-------------------------------------------------------
E-------------------------------------------------------
("I'm not in love...")

Bass-Verse
Pre-Chorus
Chorus A, B
Post-Chorus
Bass-Verse
Pre-Chorus
Chorus A, B
Post-Chorus
Break
Chorus A, B

Chorus A, B, Break


Important: The song above is NOT stored on the Chordie server. The original song is hosted at www.xguitar.com. Chordie works as a search engine and provides on-the-fly formatting. Chordie does not index songs against artists/composers will. To remove this song please click here.

This song is displayed as text-only. Transposing and tuning is only available for chordpro-songs.

Login - add to songbook

Rating click stars to rate

Layout
Accuracy

SHARE PAGE  

You need to log in to post comments