Guitar Tabs, Chords and Lyrics


Not Coming Home    Maroon 5



Guitar 1 Verse:
e---------------------------------------------------------------------------
b---------------------------------------------------------------------------
g-----5--6---9---------------5--6---9-----11---------9----------------------
d--------------------------------------------------------7------7--7--7--6--
a-----3--4---7---------------3--4---7------9---------7----------------------
e--------------------------------------------------------5------5--5--5--4--

Guitar 2 Intro/Verse   (played partially during verse):
e---------------------------------------------------------------------------
b----------------7-5-4-----------------------5--4------------\5-4-----------
g------------------------6--4--\6--6---------------------------------6--5---
d---------------------------------------------------------------------------
a---------------------------------------------------------------------------
e---------------------------------------------------------------------------


Chorus:
e---------------------------------------------------------------------------
b------5--5---------5--5--------5--5-------5--5-------------------5------5--
g------6--6---------6--6--------6--6-------6--6-----( 3x )--------6------6--
d------6--6---------6--6--------6--6-------6--6-------------------6------6--
a-------------------------------3--3-------4--4-----------------------------


Important: The song above is NOT stored on the Chordie server. The original song is hosted at www.xguitar.com. Chordie works as a search engine and provides on-the-fly formatting. Chordie does not index songs against artists/composers will. To remove this song please click here.

This song is displayed as text-only. Transposing and tuning is only available for chordpro-songs.

Login - add to songbook

Rating click stars to rate

Layout
Accuracy

SHARE PAGE  




You need to log in to post comments