Guitar Tabs, Chords and Lyrics


The Haunting    Misfits



Misfits
Song: The Haunting
Album: American Psycho (1997)
Standard Tuning

Intro:
3:-6-6-6-6-6-6-6-6-6-6-6-6-6-6-6-6-6-6-6-6-6-6-6-6--------
4:-6-6-6-6-6-6-6-6-6-6-6-6-6-6-6-6-6-6-6-6-6-6-6-6-6-6-6-6
5:-4-4-4-4-4-4-4-4-4-4-4-4-4-4-4-4-4-4-4-4-4-4-4-4-6-6-6-6
6:-------------------------------------------------4-4-4-4

Verse:
3:-6-6-6-6---------3-3-3-3--------
4:-6-6-6-6-6-6-6-6-3-3-3-3-4-4-4-4
5:-4-4-4-4-6-6-6-6-1-1-1-1-4-4-4-4
6:---------4-4-4-4---------2-2-2-2

Pre-Chorus:
3:-3-3-3-3---------3-3-3-3---------3-3-3-3------------------------
4:-3-3-3-3-4-4-4-4-3-3-3-3-4-4-4-4-3-3-3-3-4-4-4-4-3-3-3-3-3-3-3-3
5:-1-1-1-1-4-4-4-4-1-1-1-1-4-4-4-4-1-1-1-1-4-4-4-4-3-3-3-3-3-3-3-3
6:---------2-2-2-2---------2-2-2-2---------2-2-2-2-1-1-1-1-1-1-1-1

Chorus:
3:-6-6-6-6-----------------7-7-7-7
4:-6-6-6-6-6-6-6-6-4-4-4-4-7-7-7-7
5:-4-4-4-4-6-6-6-6-4-4-4-4-5-5-5-5


Important: The song above is NOT stored on the Chordie server. The original song is hosted at www.xguitar.com. Chordie works as a search engine and provides on-the-fly formatting. Chordie does not index songs against artists/composers will. To remove this song please click here.

This song is displayed as text-only. Transposing and tuning is only available for chordpro-songs.

Login - add to songbook

Rating click stars to rate

Layout
Accuracy

SHARE PAGE  




You need to log in to post comments