Guitar Tabs, Chords and Lyrics


Bullet    Misfits



By getFuKeD
i think this is the closest tab to the actual song, it took me a while to make, so i hope you enjoy it



e--------------------------------------------------------------------|
b--------------------------------------------------------------------|
g--------------------------------------------------------------------|
d-----------------------------------------------------------10-10----|   X3
a-12-12-12-12-12-12-12-12-12-12-12-12-12-12-12-12--10-10-10--8--8-12-|
e-10-10-10-10-10-10-10-10-10-10-10-10-10-10-10-10---8--8--8-------10-|

e---------------------------------------------------------------------------------------------------------------------------------------------------------------------|
b---------------------------------------------------------------------------------------------------------------------------------------------------------------------|
g---------------------------------------------------------------------------------------------------------------------------------------------------------------------|
d---------------------------------------------------------------------------------------------------------------------------------------------------------------------|
a-12-12-12-12-12-12-12-12-12-12-12-12-12-12-12-12--10-10-10-10-10-10-10-10-10-10-10-10-10-10-10-10--8-8-8-8-8-8-8-8--10-10-10-10-10-10-10-10--12-12-12-12-12-12-12-12-|
e-10-10-10-10-10-10-10-10-10-10-10-10-10-10-10-10---8--8--8--8--8--8--8--8--8--8--8--8--8--8--8--8--6-6-6-6-6-6-6-6---8--8--8--8--8--8--8--8--10-10-10-10-10-10-10-10-|

e--------------------------------------------------------------------|
b--------------------------------------------------------------------|
g--------------------------------------------------------------------|
d-----------------------------------------------------------10-10----|   X2
a-12-12-12-12-12-12-12-12-12-12-12-12-12-12-12-12--10-10-10--8--8-12-|
e-10-10-10-10-10-10-10-10-10-10-10-10-10-10-10-10---8--8--8-------10-|

e---------------------------------------------------------------------------------------------------------------------------------------------------------------------|
b---------------------------------------------------------------------------------------------------------------------------------------------------------------------|
g---------------------------------------------------------------------------------------------------------------------------------------------------------------------|
d---------------------------------------------------------------------------------------------------------------------------------------------------------------------|
a-12-12-12-12-12-12-12-12-12-12-12-12-12-12-12-12--10-10-10-10-10-10-10-10-10-10-10-10-10-10-10-10--8-8-8-8-8-8-8-8--10-10-10-10-10-10-10-10--12-12-12-12-12-12-12-12-|
e-10-10-10-10-10-10-10-10-10-10-10-10-10-10-10-10---8--8--8--8--8--8--8--8--8--8--8--8--8--8--8--8--6-6-6-6-6-6-6-6---8--8--8--8--8--8--8--8--10-10-10-10-10-10-10-10-|

e-------------------------------------------------|
b-------------------------------------------------|
g-------------------------------------------------|
d-------------------------12-12-12-12-12-12-12-12-| X18
a-12-12-12-12-12-12-12-12-10-10-10-10-10-10-10-10-|
e-10-10-10-10-10-10-10-10-------------------------|

e------------------------------------------------------------------------------------------------------------------------------------------------|
b------------------------------------------------------------------------------------------------------------------------------------------------|
g------------------------------------------------------------------------------------------------------------------------------------------------|
d-----------------------------------10-10---------------------------------------10-10---------------------------------------10-10-10-------------|
a-12-12-12-12-12-12-12-12--10-10-10--8--8-12--12-12-12-12-12-12-12-12--10-10-10--8--8-12--12-12-12-12-12-12-12-12--10-10-10--8--8--8-12-12-12-12-|
e-10-10-10-10-10-10-10-10---8--8--8-------10--10-10-10-10-10-10-10-10---8--8--8-------10--10-10-10-10-10-10-10-10---8--8--8----------10-10-10-10-|



Important: The song above is NOT stored on the Chordie server. The original song is hosted at www.xguitar.com. Chordie works as a search engine and provides on-the-fly formatting. Chordie does not index songs against artists/composers will. To remove this song please click here.

This song is displayed as text-only. Transposing and tuning is only available for chordpro-songs.

Login - add to songbook

Rating click stars to rate

Layout
Accuracy

SHARE PAGE  




You need to log in to post comments