Chordie logo


Waited   Our Lady Peace



Song: Waited
Band: Our Lady Peace
Tabbed by: pont@sprint.ca

intro riff:

e-10--12h14-10----10---12---
b-10-----------10-11--------
g---------------------------
d---------------------------
a---------------------------
e---------------------------


e-10--12h14-10----10---12-\-
b-10-----------10-11---10-\-
g---------------------------
d---------------------------
a---------------------------
e---------------------------

that's all i got, consdidering
i've never actualy heard the song
before, my friend just plays that
over and over and it's driving me


Important: The song above is NOT stored on the Chordie server. The original song is hosted at www.xguitar.com. Chordie works as a search engine and provides on-the-fly formatting. Chordie does not index songs against artists/composers will. To remove this song please click here.

This song is displayed as text-only. Transposing and tuning is only available for chordpro-songs.

Login - add to songbook

Rating click stars to rate

Layout
Accuracy

SHARE PAGE  




You need to log in to post comments