Guitar Tabs, Chords and Lyrics


Raise the Dead    Overkill



Riff 1 once
D-------------------------------------------------8-----7---------------------------
A-8-----7-----6-----8-----7-----6-----8-----7-----6-----5-----8-----7-----6-----5---
E-6-----5-----4-----6-----5-----4-----6-----5-----6-----5-----6-----5-----4-----3---

Riff 2 4x
D-7/9--9-9-9-9---7/9--9-9-9-9---7/9--9-9-9-9---4--5--2---
A-5/7--7-7-7-7---5/7--7-7-7-7---5/7--7-7-7-7---2--3--0---

Riff 3A once
D-4------2---4---------5------
A-2------0---2-----5---3------
E------------------3----------

Riff 3A ending
D-4------2-2-2--4---5--7--2----
A-2------0-0-0--2---3--5--0----

Riff 2 4x
Riff 3A 3x then ending
Riff 2 4x

Riff 3B 4x
D--------------------------------------------------5-------
A-7/9--9-9-9-9---7/9--9-9-9-9---7/9--9-9-9-9---5---3---5---
E-5/7--7-7-7-7---5/7--7-7-7-7---5/7--7-7-7-7---3-------3---

Riff 3B ending
D-----7--------5---4----------
A-7---5---7----3---2---5---2--
E-5-------5------------3---0-- E5 chord is played with the trem. bar

Riff 4 twice (Second time strum E5 chord a lot at the end)
D----------7------4----5-------------
A-2--------5------2----3---5---2----
E-0------------------------3---0----

Riff 2 8x then end w/
D-4--5--2---4--5--2---4--5--2---------------------------------------------7---9/
A-2--3--0---2--3--0---2--3--0----2----------------------------------------5---7/


Important: The song above is NOT stored on the Chordie server. The original song is hosted at www.xguitar.com. Chordie works as a search engine and provides on-the-fly formatting. Chordie does not index songs against artists'/composers' will. To remove this song please click here.

This song is displayed as text-only. Transposing and tuning is only available for chordpro-songs.

Login - add to songbook

Rating click stars to rate

Layout
Accuracy

SHARE PAGE  




You need to log in to post comments