Guitar Tabs, Chords and Lyrics


F**k Authority   Pennywise



Band: Pennywise
Song: Fuk authority
Tabbed by MIKI SIMIC

Key:
PM.-Palm Mute

Intro:
e|--------------------|-------------------|-------------------|------------|
B|--------------------|-------------------|-------------------|------------|
G|--------------------|-------------------|----------------33-|------------|
D|-----------------55-|-33-333-333-333-55-|----------------11-|--------5-7-|
A|-55--555-555-555-33-|-11-111-111-111-33-|-33-333-333-333----|-55-555-3-5-|
E|-33--333-333-333----|-------------------|-11-111-111-111----|-33-333-----| X2

Verse:
e|------------------|--------------------|--------------------|----------------|
B|------------------|--------------------|--------------------|----------------|
G|------------------|--------------------|--------------------|------------5-7-|
D|------------------|-5-3-33333333333333-|--------------------|-3----------3-5-|
A|-5-55555555555555-|-3-1-11111111111111-|-2-3-33333333333333-|-1-5-555555-----|
E|-3-33333333333333-|--------------------|-0-1-11111111111111-|---3-333333-----|
  PM ..............    PM ..............    PM ..............    PM ......

e|------------------|--------------------|--------------------|-----------------------|
B|------------------|--------------------|--------------------|-----------------------|
G|------------------|--------------------|--------------------|-----------------------|
D|------------------|-5-3-33-3-33-3-33-3-|--------------------|-3---------------------|
A|-5-55-5-55-5-55-5-|-3-1-11-1-11-1-11-1-|-2-3-33-3-33-3-33-3-|-1-5-55-5-55-5-55-5555-|
E|-3-33-3-33-3-33-3-|--------------------|-0-1-11-1-11-1-11-1-|---3-33-3-33-3-33-3333-|
  PM ..   ..   ..      PM ..   ..   ..      PM ..   ..   ..      PM ..   ..

Chorus:
e|------------------|------------------|------------------|------------------|
B|------------------|------------------|------------------|------------------|
G|------------------|------------------|------------------|------------------|
D|------------------|-3-33333333333333-|------------------|------------------|
A|-5-55555555555555-|-1-11111111111111-|-3-33333333333333-|-5-55555555555555-|
E|-3-33333333333333-|------------------|-1-11111111111111-|-3-33333333333333-| X2
  PM ..............  PM ..............  PM ..............  PM ..............

Bridge 1:
e|---------|---------|---------|---------| |---------|---------|------------|
B|---------|---------|---------|---------| |---------|---------|------------|
G|---------|---------|---------|---------| |---------|---------|------------|
D|---------|-3-3-3-3-|-5-5-5-5-|---------| |---------|-3-3-3-3-|-55555555---|
A|-5-5-5-5-|-1-1-1-1-|-3-3-3-3-|-5-5-5-5-| |-5-5-5-5-|-1-1-1-1-|-33333333-5-|
E|-3-3-3-3-|---------|---------|-3-3-3-3-| |-3-3-3-3-|---------|----------3-|

Bridge 2:
e|----------------------|---------------------|---------------|----------------|
B|----------------------|---------------------|---------------|----------------|
G|----------------------|---------------------|---------------|----------------|
D|---3----------8-8-8-8-|---------10-10-10-10-|---------8-8-8-|---3------------|
A|-5-1--5-5-555-6-6-6-6-|-5-5-555-8--8--8--8--|-5-5-555-6-6-6-|-5-1-55555555-5-|
E|-3----3-3-333---------|-3-3-333-------------|-3-3-333-------|-3---33333333-3-|

Outro:
e|---------------|-----------------------------|-------------|
B|---------------|-----------------------------|-------------|
G|---------------|-----------------------------|-------------|
D|---3-----------|-----------12-12-12-12-12-12-|-------------|
A|-5-1-5-5-5-555-|-5-5-5-555-10-10-10-10-10-10-|-pick-scrape-|
E|-3---3-3-3-333-|-3-3-3-333-------------------|-pick-scrape-|

e|------------------|-------------------|    |-------------------------------------|
B|------------------|-------------------|    |-------------------------------------|
G|------------------|-------------------|    |-------------------------------------|
D|-8-8-888-3-3-3-55-|-------------------|    |-8-8-888-10-10-10-10-3-3-555---------|
A|-6-6-666-1-1-1-33-|-5-5-xxx-5-5-5-xxx-|    |-6-6-666-8--8--8--8--1-1-333-5-5-5-5-|
E|------------------|-3-3-xxx-3-3-3-xxx-| X2 |-----------------------------3-3-3-3-|

Hey this is my first tab, take a look & tell me whatya think

MIKI

Order:
|=============|
| Intro: x2   |
| Verse: x1   |
| Chorus: x2  |
| Bridge1: x1 |
| Bridge2: x1 |
| Verse: x1   |
| Chorus: x2  |
| Bridge1: x1 |
| Outro: x1   |
| Chorus: x1  |
| Bridge1: x1 |
| Bridge2: x1 |


Important: The song above is NOT stored on the Chordie server. The original song is hosted at www.xguitar.com. Chordie works as a search engine and provides on-the-fly formatting. Chordie does not index songs against artists/composers will. To remove this song please click here.

This song is displayed as text-only. Transposing and tuning is only available for chordpro-songs.

Login - add to songbook

Rating click stars to rate

Layout
Accuracy

SHARE PAGE  




You need to log in to post comments