Guitar Tabs, Chords and Lyrics


Nobody's Real    Powerman 5000



 ----------------------------------------------------------------------------------------------

	     SONG: Nobody's Real
	     BAND: Powerman 5000
	    ALBUM: Tonight the Stars Revoltt!!
   TRANSCRIBED BY: Mike Hardy (hetfieldwannabe@hotmail.com)
	     DATE: July 20, 2000

 ----------------------------------------------------------------------------------------------

	TUNING: tune your guitar down half a step (Eb,Ab,Db,Gb,Bb,Eb)
        / = slide down  . = palm mute

     INTRO/PRE-VERSE:

    Eb|--12-12-12-12--------------------------------------|
    Bb|----12-11-10-10-9\---------------------------------|
    Gb|---------------------------------------------------|
    Db|---------------------------------------------------|
    Ab|---------------------------------------------------|
    Eb|---------------------------------------------------|

     VERSE:

    Eb|---------------------------------------------------|
    Bb|---------------------------------------------------|
    Gb|---------------------------------------------------|
    Db|-22--22-22-----------------------------------------|
    Ab|-22--22-22-----------------------------------------|
    Eb|-00--00-00-----------------------------------------|
        ..  .. ..

     CHORUS:

    Eb|---------------------------------------------------|
    Bb|---------------------------------------------------|
    Gb|---------------------------------------------------|
    Db|------2-55-77-99-1212-\----------------------------|
    Ab|-12\--2-55-77-99-1212-\----------------------------|
    Eb|-10\--0-33-55-77-1010-\----------------------------|

    Eb|---------------------------------------------------|
    Bb|---------------------------------------------------|
    Gb|---------------------------------------------------|
    Db|------2-55-77-9999---------------------------------|
    Ab|------2-55-77-9999---------------------------------|
    Eb|------0-33-55-7777---------------------------------|
  
    Eb|---------------------------------------------------|
    Bb|---------------------------------------------------|
    Gb|---------------------------------------------------|
    Db|------2-55-77-99-1212-\----------------------------|
    Ab|-12\--2-55-77-99-1212-\----------------------------|
    Eb|-10\--0-33-55-77-1010-\----------------------------|

    Eb|---------------------------------------------------|
    Bb|---------------------------------------------------|
    Gb|---------------------------------------------------|
    Db|------2-55-77--------------------------------------|
    Ab|------2-55-77--------------------------------------|
    Eb|------0-33-55--------------------------------------|

     RHYTHM DURING SOLO:

    Eb|---------------------------------------------------|
    Bb|---------------------------------------------------|
    Gb|---------------------------------------------------|
    Db|-22-22-225-22-22-225-------------------------------|
    Ab|-22-22-225-22-22-225-------------------------------|
    Eb|-00-00-003-00-00-003-------------------------------|
        .. .. ..  .. .. .. 

     SOLO W/ WAH:

    Eb|---------------------------------------------------|
    Bb|---------------------------------------------------|
    Gb|-777777777777777-----------------------------------|
    Db|---------------------------------------------------|
    Ab|---------------------------------------------------|
    Eb|---------------------------------------------------|

     PRE-CLOSING:

    Eb|--12-12-12-12--------------------------------------|
    Bb|----12-11-10-10-9\---------------------------------|
    Gb|---------------------------------------------------|
    Db|---------------------------------------------------|
    Ab|---------------------------------------------------|
    Eb|---------------------------------------------------|

     CLOSING:

    Eb|---------------------------------------------------|
    Bb|---------------------------------------------------|
    Gb|---------------------------------------------------|
    Db|-22--22-22-----------------------------------------|
    Ab|-22--22-22-----------------------------------------|
    Eb|-00--00-00-----------------------------------------|
        ..  .. .. 
   
  




Important: The song above is NOT stored on the Chordie server. The original song is hosted at www.xguitar.com. Chordie works as a search engine and provides on-the-fly formatting. Chordie does not index songs against artists'/composers' will. To remove this song please click here.

This song is displayed as text-only. Transposing and tuning is only available for chordpro-songs.

Login - add to songbook

Rating click stars to rate

Layout
Accuracy

SHARE PAGE  




You need to log in to post comments