Guitar Tabs, Chords and Lyrics


Someone's in the Wolf   Unknown



This is a great song. It's the hardest song on Lullabies, and one of the best. It's
pretty difficult, just to let you know. This is in C tuning, but it's actaully in some G tuning

Intro/Riff I

Guitar I
|--------------------------------|
|--------------------------------|
|--10-----10-----10p0-10p0-10----|
|--10-9---10-9---10p0-10p0-10-9--|
|--8--9---8--9---8-p0-8-p0-8--9--|
|-----7-0----7-0--------------7--| 2x

Guitar II
|--13-----13-----13--13--13----|
|-----12-----12----12--12--12--|
|------------------------------|
|------------------------------|
|------------------------------|
|------------------------------| 2x

Riff II
Guitar I
|------------------------------------|
|------------------------------------|
|------------------------------------|
|-9-9-9-9-11-11---12-12-12-12-15-15--|
|------------------------------------|
|------------------------------------| 2x

Guitar I
|----------------------------------------------|
|----------------------------------------------|
|----------------------------------------------|
|-9-9-9-9-11-11-11-11-12-12-12-12-15-15-15-15--|
|----------------------------------------------|
|----------------------------------------------| 2x

Guitar II
|--------------------------------------------------|
|-12-12-12-12-14-14-14-14-15-15-15-15-18-18-18-18--|
|--------------------------------------------------|
|--------------------------------------------------|
|--------------------------------------------------|
|--------------------------------------------------| 2x

Riff I repeat

Verse Riff/Riff III
Guitar I & II
|----------------------------------------------------------------|
|----------------------------------------------------------------|
|---------10------------10------------10----10-10-10p8---8-10p8--|
|------------9-------------9-------------9-------------9---------|
|----------------------------------------------------------------| 2x w/
|-9-9-9-9-------9-9-9-9-------9-9-9-9----------------------------| no vox

  Once------    You're------  Lost-------------------------------|                       In
|----------------------------------------------------------------|
|----------------------------------------------------------------|
|---------10------------10------------10----10-10-10p8---8-10p8--|
|------------9-------------9-------------9-------------9---------|
|----------------------------------------------------------------|
|-9-9-9-9-------9-9-9-9-------9-9-9-9----------------------------|

  In Twi-------lights's-----  Blue---------------------------------|
|------------------------------------------------------------------|
|------------------------------------------------------------------|
|---------10------------10------------10----10-10-10p8---8-10p8----|
|------------9-------------9-------------9-------------9-----------|
|------------------------------------------------------------------|
|-9-9-9-9-------9-9-9-9-------9-9-9-9------------------------------|

  You Don't--   Find--------  the Way------------------------------|
|------------------------------------------------------------------|
|------------------------------------------------------------------|
|---------10------------10------------10----10-10-10p8---8-10p8----|
|------------9-------------9-------------9-------------9-----------|
|------------------------------------------------------------------|
|-9-9-9-9-------9-9-9-9-------9-9-9-9------------------------------|

  The Way-----  Find-------  You-----------------------------------
|------------------------------------------------------------------|
|------------------------------------------------------------------|
|---------10------------10------------10----10-10-10p8---8-10p8----|
|------------9-------------9-------------9-------------9-----------|
|------------------------------------------------------------------|
|-9-9-9-9-------9-9-9-9-------9-9-9-9------------------------------|

Riff IV
 Guitar I & II
|-----------11----13-13-13-13-11--13-13-13-13-11--13-13-13-13-11------------|
|--------12----12------------------------------------------------12-10------|
|---8-10---------------------------------------------------------------10-8-|
|-9-------------------------------------------------------------------------|
|---------------------------------------------------------------------------|
|---------------------------------------------------------------------------|

|-----------11----13-13-13-13-11--13-13-13-13-11--13-13-13-13-11------------|
|--------12----12------------------------------------------------12-10------|
|---8-10---------------------------------------------------------------10-8-|
|-9-------------------------------------------------------------------------|
|---------------------------------------------------------------------------|
|---------------------------------------------------------------------------|

Verse/Riff II

  Temp--------  The---------  Fates-----------              Be-----
|------------------------------------------------------------------|
|------------------------------------------------------------------|
|---------10------------10------------10----10-10-10p8---8-10p8----|
|------------9-------------9-------------9-------------9-----------|
|------------------------------------------------------------------|
|-9-9-9-9-------9-9-9-9-------9-9-9-9------------------------------|

 -ware--------  The---------  Smile--------------------
|------------------------------------------------------------------|
|------------------------------------------------------------------|
|---------10------------10------------10----10-10-10p8---8-10p8----|
|------------9-------------9-------------9-------------9-----------|
|------------------------------------------------------------------|
|-9-9-9-9-------9-9-9-9-------9-9-9-9------------------------------|

  It Hides---- The----------  Teeth      My Dear
|------------------------------------------------------------------|
|------------------------------------------------------------------|
|---------10------------10------------10----10-10-10p8---8-10p8----|
|------------9-------------9-------------9-------------9-----------|
|------------------------------------------------------------------|
|-9-9-9-9-------9-9-9-9-------9-9-9-9------------------------------|

                                        Guitar II
                                       |--------------------------|
                                       |--------------------------|
                                       |-13-13-13-11-10-11-13-11--|
                                       |--------------------------|
                                       |--------------------------|
                                       |--------------------------|

  What's------  Behind----------------------------------- Them
|------------------------------------------------------------------|
|------------------------------------------------------------------|
|---------10------------10------------10----10-10-10p8---8-10p8----|
|------------9-------------9-------------9-------------9-----------|
|------------------------------------------------------------------|
|-9-9-9-9-------9-9-9-9-------9-9-9-9------------------------------|

Riff IV

|-----------11----13-13-13-13-11--13-13-13-13-11--13-13-13-13-11------------|
|--------12----12------------------------------------------------12-10------|
|---8-10---------------------------------------------------------------10-8-|
|-9-------------------------------------------------------------------------|
|---------------------------------------------------------------------------|
|---------------------------------------------------------------------------|

|-----------11----13-13-13-13-11--13-13-13-13-11--13-13-13-13-11------------|
|--------12----12------------------------------------------------12-10------|
|---8-10---------------------------------------------------------------10-8-|
|-9-------------------------------------------------------------------------|
|---------------------------------------------------------------------------|
|---------------------------------------------------------------------------|

|-----------14-11--16-16-16-16-14--16-16-16-16-14--16-16-16-16-14-----------|
|--------12------------------------------------------------------12-10------|
|---8-10---------------------------------------------------------------10-8-|
|-9-------------------------------------------------------------------------|
|---------------------------------------------------------------------------|
|---------------------------------------------------------------------------|

|-----------14-11--16-16-16-16-17--16-16-16-16-17--16-16-16-16-14-13-11-----|
|--------12------------------------------------------------------------10-12|
|---8-10--------------------------------------------------------------------|
|-9-------------------------------------------------------------------------|
|---------------------------------------------------------------------------|
|---------------------------------------------------------------------------|

Chorus: Guitar I

  So Glad  You Could  Stay--- Forever-----------------
|-------------------------------------------------------|
|-12~/15---10~~\7---------------------------------------|
|---------------------10------10------9------7----------|
|------------------------9--9----9--9---9--9---9--9-----|
|-------------------------------------------------------|
|-------------------------------------------------------| 4x

Guitar II
|---------------------13-------13------12-------10--------|
|------------------------12-12---12-12----12-12----12-12--|
|---------------------------------------------------------|
|--9~/12~---7~~\4-----------------------------------------|
|---------------------------------------------------------|
|---------------------------------------------------------| 4x

Riff II
Guitar I
|------------------------------------|
|------------------------------------|
|------------------------------------|
|-9-9-9-9-11-11---12-12-12-12-15-15--|
|------------------------------------|
|------------------------------------| 2x

Guitar I
|----------------------------------------------|
|----------------------------------------------|
|----------------------------------------------|
|-9-9-9-9-11-11-11-11-12-12-12-12-15-15-15-15--|
|----------------------------------------------|
|----------------------------------------------| 2x

Guitar II
|--------------------------------------------------|
|-12-12-12-12-14-14-14-14-15-15-15-15-18-18-18-18--|
|--------------------------------------------------|
|--------------------------------------------------|
|--------------------------------------------------|
|--------------------------------------------------| 2x

Alternate Riff I

Guitar I
|--------------------------------|
|--------------------------------|
|--10-----10-----10p0-10p0-10----|
|--10-9---10-9---10p0-10p0-10-9--|
|--8--9---8--9---8-p0-8-p0-8--9--|
|-----7-0----7-0--------------7--| 4x

Guitar II
|--13-14--13-13----13-14p13-11h13-13----|
|---------------12-------------------12-|
|---------------------------------------|
|---------------------------------------|
|---------------------------------------|
|---------------------------------------| 2x

|--16h17--16-16-14--14-16p14-13h14-14-----|
|-------------------------------------12--|
|-----------------------------------------|
|-----------------------------------------|
|-----------------------------------------|
|-----------------------------------------| 2x

Verse
 (he just moans the first two measures)
|----------------------------------------------------------------|
|----------------------------------------------------------------|
|---------10------------10------------10----10-10-10p8---8-10p8--|
|------------9-------------9-------------9-------------9---------|
|----------------------------------------------------------------|
|-9-9-9-9-------9-9-9-9-------9-9-9-9----------------------------| 2x

 He Steps------ Between------ The Trees------------------------
|------------------------------------------------------------------|
|------------------------------------------------------------------|
|---------10------------10------------10----10-10-10p8---8-10p8----|
|------------9-------------9-------------9-------------9-----------|
|------------------------------------------------------------------|
|-9-9-9-9-------9-9-9-9-------9-9-9-9------------------------------|

 A Crooked------------------- Man-------------------------------
|------------------------------------------------------------------|
|------------------------------------------------------------------|
|---------10------------10------------10----10-10-10p8---8-10p8----|
|------------9-------------9-------------9-------------9-----------|
|------------------------------------------------------------------|
|-9-9-9-9-------9-9-9-9-------9-9-9-9------------------------------|

 There's Blood-- On--------- The Blade--------------------------
|------------------------------------------------------------------|
|------------------------------------------------------------------|
|---------10------------10------------10----10-10-10p8---8-10p8----|
|------------9-------------9-------------9-------------9-----------|
|------------------------------------------------------------------|
|-9-9-9-9-------9-9-9-9-------9-9-9-9------------------------------|

                                       Guitar II
                                       |-/17~-17-17-16-14-13-14-16--|
                                       |----------------------------|
                                       |----------------------------|
                                       |----------------------------|
                                       |----------------------------|
                                       |----------------------------|

 Don't Take-------------- His Hand----------------------------
|------------------------------------------------------------------|
|------------------------------------------------------------------|
|---------10------------10------------10----10-10-10p8---8-10p8----|
|------------9-------------9-------------9-------------9-----------|
|------------------------------------------------------------------|
|-9-9-9-9-------9-9-9-9-------9-9-9-9------------------------------|

Riff IV

|-----------11----13-13-13-13-11--13-13-13-13-11--13-13-13-13-11------------|
|--------12----12------------------------------------------------12-10------|
|---8-10---------------------------------------------------------------10-8-|
|-9-------------------------------------------------------------------------|
|---------------------------------------------------------------------------|
|---------------------------------------------------------------------------|

|-----------11----13-13-13-13-11--13-13-13-13-11--13-13-13-13-11------------|
|--------12----12------------------------------------------------12-10------|
|---8-10---------------------------------------------------------------10-8-|
|-9-------------------------------------------------------------------------|
|---------------------------------------------------------------------------|
|---------------------------------------------------------------------------|

|-----------14-11--16-16-16-16-14--16-16-16-16-14--16-16-16-16-14-----------|
|--------12------------------------------------------------------12-10------|
|---8-10---------------------------------------------------------------10-8-|
|-9-------------------------------------------------------------------------|
|---------------------------------------------------------------------------|
|---------------------------------------------------------------------------|

|-----------14-11--16-16-16-16-17--16-16-16-16-17--16-16-16-16-14-13-11-----|
|--------12------------------------------------------------------------10-12|
|---8-10--------------------------------------------------------------------|
|-9-------------------------------------------------------------------------|
|---------------------------------------------------------------------------|
|---------------------------------------------------------------------------|

 You Warm------- By--------- The Fire Light--------------------
|------------------------------------------------------------------|
|------------------------------------------------------------------|
|---------10------------10------------10----10-10-10p8---8-10p8----|
|------------9-------------9-------------9-------------9-----------|
|------------------------------------------------------------------|
|-9-9-9-9-------9-9-9-9-------9-9-9-9------------------------------|

 In Twilights-------------------- Blue------------------------
|------------------------------------------------------------------|
|------------------------------------------------------------------|
|---------10------------10------------10----10-10-10p8---8-10p8----|
|------------9-------------9-------------9-------------9-----------|
|------------------------------------------------------------------|
|-9-9-9-9-------9-9-9-9-------9-9-9-9------------------------------|

 Shadows------ Creep---    And Dance the Walls
|------------------------------------------------------------------|
|------------------------------------------------------------------|
|---------10------------10------------10----10-10-10p8---8-10p8----|
|------------9-------------9-------------9-------------9-----------|
|------------------------------------------------------------------|
|-9-9-9-9-------9-9-9-9-------9-9-9-9------------------------------|
Note- guitar two is playing the higher octive notes on the 5th notes (13/12)

 He's--------- Creepin'---   Too-------------------------------
|------------------------------------------------------------------|
|------------------------------------------------------------------|
|---------10------------10------------10----10-10-10p8---8-10p8----|
|------------9-------------9-------------9-------------9-----------|
|------------------------------------------------------------------|
|-9-9-9-9-------9-9-9-9-------9-9-9-9------------------------------|

Chorus: Guitar I

  So Glad  You Could  Stay--- Forever-----------------
|-------------------------------------------------------|
|-12~/15---10~~/7---------------------------------------|
|---------------------10------10------9------7----------|
|------------------------9--9----9--9---9--9---9--9-----|
|-------------------------------------------------------|
|-------------------------------------------------------| 4x

Guitar II
|---------------------13-------13------12-------10--------|
|-12~/15---10~~/7--------12-12---12-12----12-12----12-12--|
|---------------------------------------------------------|
|---------------------------------------------------------|
|---------------------------------------------------------|
|---------------------------------------------------------| 4x

Breakdown (this is in order but it would take way too much time and room to syncronise it with the bass)

Bass
|-------------------------------------------------------------|
|-------------------------------------------------------------|
|-------------------------------------------------------------|
|-5/7\--5/7\--5/7\-----5/7\--5/7\--5/7\-----5/7\--5/7\--5/7\--| 1x alone

*does this the whole time

Slide (lap steel, actually)
|----//11~~/12\\-(10)\9~~\\----//5~~\\-----------------------|
|------------------------------------------------------------|
|------------------------------------------------------------|
|------------------------------------------------------------|
|------------------------------------------------------------|
|------------------------------------------------------------|

Guitar (odd distortion)                     
|--/17~~\--------------/17v~~\--------------19-21-22-21-18---|
|------------------------------------------------------------|
|------------------------------------------------------------|
|------------------------------------------------------------|
|------------------------------------------------------------|
|------------------------------------------------------------|

*note* the tremlo notes above are actually mandolin and they are at the start and end of
phrases, just listen if you want to memorize it

Slide
|--/13~\12/13~--13/12\13~~---13/12\13/15~~\--/13~~\\\\~~~~---|
|------------------------------------------------------------|
|------------------------------------------------------------|
|------------------------------------------------------------|
|------------------------------------------------------------|
|------------------------------------------------------------|

Guitar
|------------------------------------------------------------|
|------------------------------------------------------------|
|------------------------------------------------------------|
|------------------------------------------------------------|
|-4^(5)~---------------4^(5)~~--------------4^(5)~~~~--------|
|------------------------------------------------------------|

Slide
|------------------------------------------------------------|
|--------------------------------------------14~~\\----------|
|------------------------------------------------------------|
|------------------------------------------------------------|
|------------4~/14-------------------------------------------|
|------------------------------------------------------------|

Guitar (this portion is all in one measure, not three like the rest)
|-----------------------------------------------------------------------|
|-----------------------------------------------------------------------|
|-------------------------------------9-10-11--11-10p9-9v---------------|
|--9-9-10--10p9-9-9--9--9-9/10\9-9--9-----------------------9-9/10\9-9--|
|-----------------------------------------------------------------------|
|-----------------------------------------------------------------------|

(now back to three measures per bar)

Slide
|--13/12\13/12-12-----------------------------------17~/13\/13\/13\\\~--|
|-----------------------------------------------------------------------|
|---------------------------14~13~~\\\----------------------------------|
|-----------------------------------------------------------------------|
|-----------------------------------------------------------------------|
|-----------------------------------------------------------------------|

Guitar
|-17/18~~\17~~----------------17/18\17/20~~~\---------------------------|
|-----------------------------------------------------------------------|
|-----------------------------------------------------------------------|
|-------------9-10^--------------------------9-10^-9-------9^-----------|
|-----------------------------------------------------------------------|
|-------------------10^~~------------------------------------10^~~~\----|

*The vocals now come back in

Guitar I- clean

 So Glad You Could Stay----------     So Glad You------------
|-18-20--17--14----16-----------------18-20-17-16-14----15^~---|
|--------------------------------------------------------------|
|--------------------------------------------------------------|
|--------------------------------------------------------------|
|--------------------------------------------------------------|
|--------------------------------------------------------------|

Guitar II - slight distortion
|------------------15^(16)~------------------------------15^--|
|-------------------------------------------------------------|
|-------------------------------------------------------------|
|-------------------------------------------------------------|
|-------------------------------------------------------------|
|-------------------------------------------------------------|

 So--------------- Glad------- So Glad You Could Stay
|-18--16------16-------15^~~---18------16--------15-13-12-10~~--|
|---------------------------------------------------------------|
|---------------------------------------------------------------|
|---------------------------------------------------------------|
|---------------------------------------------------------------|
|---------------------------------------------------------------|

Guitar II
|-----------------------15^----------------------------15^------|
|---------------------------------------------------------------|
|---------------------------------------------------------------|
|---------------------------------------------------------------|
|---------------------------------------------------------------|
|---------------------------------------------------------------|

 So Glad You Could Stay--- Forever-----------------------
|-18--------------------------------------------------------------|
|------------------(distortion right here)------------------------|
|------------------10------9------7-------------------------------|
|---------------------9--9---9--9---9--9-10-9---------------------|
|-----------------------------------------------------------------|
|-----------------------------------------------------------------|

Guitar II (heavy Distortion
|----------------------------------------------|
|----------------------------------------------|
|------------------10-----10-----10--10--10----|
|------------------10-9---10-9---10--10--10-9--|
|------------------8--9---8--9---8-0-8-0-8--9--|
|---------------------7-0----7-0------------7--|

Return
Guitar I
|------------------------------------|
|------------------------------------|
|------------------------------------|
|-9-9-9-9-11-11---12-12-12-12-15-15--|
|------------------------------------|
|------------------------------------| 2x

Guitar I
|----------------------------------------------|
|----------------------------------------------|
|----------------------------------------------|
|-9-9-9-9-11-11-11-11-12-12-12-12-15-15-15-15--|
|----------------------------------------------|
|----------------------------------------------| 6x

Guitar II
|--------------------------------------------------|
|-12-12-12-12-14-14-14-14-15-15-15-15-18-18-18-18--|
|--------------------------------------------------|
|--------------------------------------------------|
|--------------------------------------------------|
|--------------------------------------------------| 6x

Guitar I
|-------------|
|-------------|
|-------------|
|-9-11-12-11--|
|-------------|
|-------------| 8x

Guitar II
|-------------|
|-11-13-14-13-|
|-------------|
|-------------|
|-------------|
|-------------| 4x

Guitar II
|-------------|
|-11-13-14-17-|
|-------------|
|-------------|
|-------------|
|-------------| 4x

Outro
Guitar I
|--------------------------------|
|--------------------------------|
|--10-----10-----10p0-10p0-10----|
|--10-9---10-9---10p0-10p0-10-9--|
|--8--9---8--9---8-p0-8-p0-8--9--|
|-----7-0----7-0--------------7--| 4x

Guitar II
|--16-17--16-16-14--16-17-16-17-16-17-----|
|-----------------------------------------|
|-----------------------------------------|
|-------------------------------------12~-|
|-----------------------------------------|
|-----------------------------------------| 2x



Important: The song above is NOT stored on the Chordie server. The original song is hosted at www.xguitar.com. Chordie works as a search engine and provides on-the-fly formatting. Chordie does not index songs against artists'/composers' will. To remove this song please click here.

This song is displayed as text-only. Transposing and tuning is only available for chordpro-songs.

Login - add to songbook

Rating click stars to rate

Layout
Accuracy

SHARE PAGE  




You need to log in to post comments