eToCache5 = ""; ?> Packt Like Sardines In A Crushed Tin Box by Radiohead - guitar chords, guitar tabs and lyrics - chordie

Packt Like Sardines In A Crushed Tin Box

Radiohead

 CDCCBBAFGCD
-----------|-----------|-----------|-----------|
-----------|-----------|-----------|-----------|
-----------|-----------|-----------|-----------|
-----------|-----------|-----------|-----------|
-3h5---3---|-3----2----|2---0------|-----------|
-----------|-----------|------5----|-7-0---2---|

37 seconds in: first progression heard
 CDCCBDFGACGD
-----------|-----------|-----------|-----------|
-----------|-----------|-----------|-----------|
-----------|-----------|-----------|-----------|
-----------|-----------|-----------|-----------|
-3h5---3---|-3----2----|-5---------|-0-3----5--|
-----------|-----------|---5--7----|------7----|

"After years of waiting..."
That's pretty much it. There are very slight variations in the progressions,
and also some guitar noise and effects that aren't too tab friendly.




































A B C D F G
variations - click chord images
Transpose chords:
Tuning:
Cool service:
View: Size:
A  A  A
Rating:
Layout:
  • Currently 1.6/5 Stars.
  • 1
  • 2
  • 3
  • 4
  • 5
 
Accuracy:
  • Currently 3.1/5 Stars.
  • 1
  • 2
  • 3
  • 4
  • 5
 
click stars to rate
Chordie recommends:
Check out these online guitar lessons
Songbook:
Login to add this song to your songbook
Support the artist
Preview/buy this song
MSN Music
Why this non-profit ad?

 
login to add comments/video/corrections