Chordie logo


Shame On You    Rage



Author/Artist: Rage
Title: Shame on You
Album: Trapped (1992)
Transcribed by: Maddin
Email: Minas_Morgul6@gmx.net

Hi Everyone , Thats the Tab for Rage's "Shame on You".

This is one of my first Tabs and i don't think that everything is correct.
Feel Free to mail any comments or corrections.

Listen to the Record for the Timing.

Tune Guitar to Eb (Every String a half Step down)

Enjoy...

Riff 1
-------------------|-------------------|---------------------|----------------
--h-----h----------|--h-----h----------|-----------h---------|----------------
-57-7--57--8-7-5-7-|-57-7--57--8-7-5-7-|-11-1111--57-8-7-5-7-|-7777-55-33-22--
-00-0--00--0-0-0-0-|-00-0--00--0-0-0-0-|-0--0-0---00-0-0-0-0-|-0000-00-00-00--
-------------------|-------------------|---------------------|----------------
-------------------|-------------------|---------------------|----------------


-------------------|-------------------|---------------------|----------------
--h-----h----------|--h-----h----------|-----------h---------|----------------
-57-7--57--8-7-5-7-|-57-7--57--8-7-5-7-|-11-1111--57-8-7-5-7-|-14-1414-12-11--
-00-0--00--0-0-0-0-|-00-0--00--0-0-0-0-|-0--0-0---00-0-0-0-0-|-0--0-0--0--0---
-------------------|-------------------|---------------------|----------------
-------------------|-------------------|---------------------|----------------
Play 2x

Riff 2 (w\distortion)
------------------------
------------------------
har---------------------
-^---5-------3----------
-5---5-------3----------
-----3--000--1--0-1-2---  Play 8x
        ...     . . .

Play Riff 1(w\distortion)
Play Riff 2 again 8 Times

Riff 3 (Chorus)
Sorry-I'm realy not sure about this Part!If you got a better version- Mail it!!
--------------------|--------------------|------------------|------------------
--------------------|--------------------|------------------|------------------
-8------8------8----|-7------7------7--7-|-8----------------|-----------har----
-8------8------8----|-7------7------7--7-|-8--------h-------|----h-------^-----
-6-6666-6-6666-6-66-|-5-5555-5-5555-5--5-|-6-66--3--5--1--3-|-3--5---3---5-----
--------------------|--------------------|------------------|------------------
   ....   ....   ..     ....   ....          ..

--------------------|--------------------|--------------|---------------------
--------------------|--------------------|----------har-|---------har---------
-8------8------8----|-7------7------7----|-5---------^--|----------^----------
-8------8------8----|-7------7------7----|-5---------7--|----------9----------
-6-6666-6-6666-6-66-|-5-5555-5-5555-5-55-|-3------------|---------------------
--------------------|--------------------|--------------|---------------------
   ....   ....   ..     ....   ....   ..

Now Play Riff 1 (2 Times)
Play Riff 2 (8x)
Play Riff 3

Riff 4
-------------------|---------------------
-------------------|---------------------
-------------------|---------------------
-7--7-----5--------|-5--5-----3----------
-7--7-----5--------|-5--5-----3----------
-5--5-555-3--2-3-4-|-3--3-000-1--0-1-2---  Play 4 Times
      ...    . . .        ...    . . .

Play this Riff as Rhythm for the Solo!
-----------------------
-----------------------
-----------------------
-----------------------
-5-5-5-----------------
-3-3-3-000--1-0-1-0----
 . . . ...  . . . .

Sorry- no Solo!!!!!!!!

At the End Play Riff 1 again and End with this
----------------
---h-------h----
-5-7--7--5-7----
-0-0--0--0-0----
----------------
----------------



Important: The song above is NOT stored on the Chordie server. The original song is hosted at www.xguitar.com. Chordie works as a search engine and provides on-the-fly formatting. Chordie does not index songs against artists/composers will. To remove this song please click here.

This song is displayed as text-only. Transposing and tuning is only available for chordpro-songs.

Login - add to songbook

Rating click stars to rate

Layout
Accuracy

SHARE PAGE  




You need to log in to post comments