Guitar Tabs, Chords and Lyrics


Stargazer    Rainbow



Song: Stargazer
Band: Rainbow
Album: Rising

By Yogaguitar

It was kind of hard to tab a special part of the solo, but otherwise the tab should be correct.
Enjoy it!

Riff 1:
|----------------------------------------------------------|
|----------------------------------------------------------|
|----------------------------------------------------------|
|---------------------------5-4----------------------------|
|---5-6-7---5-6-7---5-6-7-------5----5-6-7---5-6-7---5-6-7-|
|-0-------0-------0-------0--------0-------0-------0-------|


|-------------------------------------------------------------|
|-------------------------------------------------------------|
|----------------------------------2^4r-0-2-0------0-2--------|
|-------5-4---5-------------------------------2-0--0-2--------|
|-5-6-7-----7---7-5---5---------------------------------------|
|-------------------7---7-5-3-5-3-----------------------3-2-1-|

verse:
|------------------------------------------------------------------|
|------------------------------------------------------------------|
|------------------------------------------------------------------|
|---------------------------5-4------------------------------5-4---|
|---5-6-7---5-6-7---5-6-7-------5----5-6-7---5-6-7---5-6-7-------5-|
|-0-------0-------0-------0--------0-------0-------0-------0-------|


|-----------------------------------------------------------------|
|-----------------------------------------------------------------|
|-----------------------------------------------------------------|
|---------------------------5-4-----------------------------------|
|---5-6-7---5-6-7---5-6-7-------5----5-6-7---5-6-7---5-6-7--5-6-7-|
|-0-------0-------0-------0--------0-------0-------0--------------|

Chorus:	                                             4x
|---------|-----------------------------------------------|
|---------|-----------------------------------------------|
|---------|-o-----------------------------------------5-o-|
|---------|-o-4-5-4-----4-5-4-----4-5-4-4/54-2-4-5-4--5-o-|
|-----0-3-|---2-3-2-0h1-2-3-2-0h1-2-3-2-2/32-0-2-3-2--3---|
|-2-3-----|-----------------------------------------------|


|----------|--------------------------------------------------------------------|
|----------|--------------------------------------------------------------------|
|----------|-o------------------------------------------------------------------|
|----------|-o----------2-2-2-2-2-2-----------2-2-2-2-2-2-----------------------|
|-0-2-3--2-|---5-3-2-0--0-0-0-0-0-0--5-3-2-0--0-0-0-0-0-0--3-2-0----5-5-5-5-5-5-|
|----------|-----------------------------------------------------3--3-3-3-3-3-3-|

 	           2x
|------------------------|-----------------|
|------------------------|-8-7-------------|
|----------------------o-|-7-7-9-5-7-------|
|----------------------o-|-5-7-9-5-7-------|
|-3-2-0----5-5-5-5-5-5---|-----7-3-5-------|
|-------3--3-3-3-3-3-3---|-------------12-|

Riff 2:
|----------------------------------------------------------|
|----------------------------------------------------------|
|----------------------------------------------------------|
|---------------------------5-4----------------------------|
|---5-6-7---5-6-7---5-6-7-------5----5-6-7---5-6-7---5-6-7-|
|-0-------0-------0-------0--------0-------0-------0-------|


|-----------------------------------------|
|-----------------------------------------|
|-----------------------------------------|
|-------5-4---5---------------------------|
|-5-6-7-----7---7-5---5-------------------|
|-------------------7---7-5-3-5-3---3-2-1-|

Verse  1x
Chorus 1x

Solo:
|--------------------------------------------------------------------------------|
|-------------4^5^4--------------------------------------------------------------|
|-3^4-4-4^5^4-------5-4-^5^4-4-11-^12^11^12^11-9-^11-^9---4/14^16^14-14-14-14^16-|
|-------------------------------------------------------9------------------------|
|--------------------------------------------------------------------------------|
|--------------------------------------------------------------------------------|


|---------------14^15^14-12-12^14^12-(5x)-12^14--^12--------------------|
|-----------------------------------------------------------5-4h5p4-----|
|-14^16-16--16----------------------------------------4^5^4---------5-2-|
|-----------------------------------------------------------------------|
|-----------------------------------------------------------------------|
|-----------------------------------------------------------------------|


|---------------------------------------------------------------------------------|
|--------------------4-5-4-5-4-7p5-4-4---------4-4h5p4-------4-4h5p4-------4-4h5p4|
|-4h5p4p2-(3x)-4-4-5-------------------5-4-4h5---------5p4h5---------5p4h5--------|
|---------------------------------------------------------------------------------|
|---------------------------------------------------------------------------------|
|---------------------------------------------------------------------------------|


|--------------------------5p3p0-(15x)---------------------------------------|
|-------4h5p4-----4-5-5-8----------------7p5p4*---8/10p8---10p8*-11p8*-12p9*-|
|-4-4-5-------4h5----------------------------------------9-------------------|
|----------------------------------------------------------------------------|
|----------------------------------------------------------------------------|
|----------------------------------------------------------------------------|

*=repeat trill

From here on just improvise the trills until this part:

|-------------------------------18-18-18-18p15-15-15-15h17-17-17^19^17-15h17-17-|
|-22^24-(7x)-22^24^22-19-20-20--------------------------------------------------|
|-------------------------------------------------------------------------------|
|-------------------------------------------------------------------------------|
|-------------------------------------------------------------------------------|
|-------------------------------------------------------------------------------|


|-18-17^19^17-15-18-15h18p15-14-14h15-12-12h15p14p12-12h14-12-12h15*-12-15-14-12-|
|--------------------------------------------------------------------------------|
|--------------------------------------------------------------------------------|
|--------------------------------------------------------------------------------|
|--------------------------------------------------------------------------------|
|--------------------------------------------------------------------------------|


|-14-13-14-13-14p13*-14---12-----------------------------------------------10-|
|-----------------------------------------------------12h13p12p10-12h13p12----|
|-----------------------------------------------12-14-------------------------|
|--------------------------------------12-14-16-------------------------------|
|-----------------------------12-14-15----------------------------------------|
|-----------------------------------------------------------------------------|


|----------------10--------------------------10----14----14----14---------------|
|-13p10-12p10-12----13--12h13p12p10-12h13p12----12----12----12----12------------|
|-------------------------------------------------------------------------------|
|-------------------------------------------------------------------------------|
|----------------------------------------------------------------------12-14-15-|
|-------------------------------------------------------------------------------|


|-----------------------------7-8-10-12-14-15-17-19--21^22-(9x)-21^2217----------|
|----------------------7-8-10------------------------------------------17--------|
|----------12-147-7-9------------------------------------------------------------|
|-12-14-16-----------------------------------------------------------------------|
|--------------------------------------------------------------------------------|
|----------------------------------------------------------------------------12\\\\-|

Verse 1x

Chorus 2:	4x
|---------|-----------------------------------------------|----------|
|---------|-----------------------------------------------|----------|
|---------|-o-----------------------------------------5-o-|----------|
|---------|-o-4-5-4-----4-5-4-----4-5-4-4/54-2-4-5-4--5-o-|----------|
|-----0-3-|---2-3-2-0h1-2-3-2-0h1-2-3-2-2/32-0-2-3-2--3---|-0-2-3--2-|
|-2-3-----|-----------------------------------------------|----------|

Repeat this riff till the end:
|------------------------------------------------------------------|
|------------------------------------------------------------------|
|------------------------------------------------------------------|
|----------2-2-2-2-2-2-----------2-2-2-2-2-2-----------------------|
|-5-3-2-0--0-0-0-0-0-0--5-3-2-0--0-0-0-0-0-0--3-2-0----5-5-5-5-5-5-|
|---------------------------------------------------3--3-3-3-3-3-3-|


|----------------------|
|----------------------|
|----------------------|
|----------------------|
|-3-2-0----5-5-5-5-5-5-|


Important: The song above is NOT stored on the Chordie server. The original song is hosted at www.xguitar.com. Chordie works as a search engine and provides on-the-fly formatting. Chordie does not index songs against artists/composers will. To remove this song please click here.

This song is displayed as text-only. Transposing and tuning is only available for chordpro-songs.

Login - add to songbook

Rating click stars to rate

Layout
Accuracy

SHARE PAGE  




You need to log in to post comments