Guitar Tabs, Chords and Lyrics


As Wicked  Rancid

    [G]     [A]     [D]                                                                   
e---X----X----X----
B---X----X----X----
G---X----X----7----
D---5----7----7----
A---5----7----5----
E---3----5----X----

[D]  [G]  [D]  [G]  [D]  [G]  [A]  [G]  [D]  [G]  [D]  [G]  [D]  [G]  [A]  [G]  [D]I saw this old man [G]on the street
[D]He was in a dumpster [A]looking for something to eat
[D]He moved so slow like a [G]dying dream
[D]Like a machinist who got [A]caught in the machine
[D]I saw this lady and [G]she was crying
[D]She said it's hard when [A]someone you love is dying
[D]I saw this kid he's about [G]five years old
[D]He's in the park all [A]alone and it's cold
[D]There's [G]something [A]coming 'round
[D]As [G]wicked as [D]it may [G]seem [D]as [G]wicked as [A]anything [G]could be
[D]As [G]wicked as [D]it may [G]seem [D]as [G]wicked as [A]anything [G]could be
[D]I know this girl she's [G]barely alive [D]she's all haggard she's [A]only 25
[D]She said she never had a [G]friend before
I said [D]hey girl I'll be your friend but [A]who's keeping score
[D]I saw this other little [G]girl on the phone
[D]Her mom comforts her from [A]far far from home
[D]The little girl was very [G]hesitant her [D]best friend lie dead [A]on the pavement
[D]There's [G]something [A]coming 'round
[D]As [G]wicked as [D]it may [G]seem [D]as [G]wicked as [A]anything [G]could be
[D]As [G]wicked as [D]it may [G]seem [D]as [G]wicked as [A]anything [G]could be
[D]Na na na na na na na na na[G] [A]
[A]Na na na na na na na na na[G] [D]
[D]Na na na na na na na na na[G] [A]
[A]Na na na na na na na na na[G] [D]
e-3--10- (repeat solo a bunch,
B-3--10- listen to the song and it'll be easier to figure out)
G-------
D-------
A-------
E-------

[D]I always end up [G]back on the hill [D]looking down [A]at the landfill
[D]I always go there [G]when I can
[D]My friend Marty said [A]Tim you're a lucky man
[D]There's [G]something [A]coming 'round
[D]As [G]wicked as [D]it may [G]seem [D]as [G]wicked as [A]anything [G]could be
[D]As [G]wicked as [D]it may [G]seem [D]as [G]wicked as [A]anything [G]could be[D]
_____________________________________________________________________
AS WICKED -Tablature
Note that the single note line in the intro below is actually played by Matt
Freeman's bass, but is transcribed here for gtr.1
INTRO:
(Gtr.1) D5
e|--------|----------------|----------------|----------------|----------------|
B|--------|----------------|----------------|----------------|----------------|
G|--------|7\--------------|----------------|----------------|----------------|
D|--------|7\--------------|----------------|----------------|----------------|
A|--2-3-4-|5\--------------|----------------|----------------|----------2-3-4-|
E|--------|----------------|----------------|----------------|----------------|

| |
|(Gtr.2) D5 G5 D5 G5 D5 G5 A5 G5 |
e|--------|----------------|----------------|----------------|----------------|
B|--------|----------------|----------------|----------------|----------------|
G|--------|7---7-----------|7---7-----------|7---7-----------|----------------|
D|--------|7---7-0-5-5-5-0-|7---7-0-5-5-5-0-|7---7-0-5-5-5-0-|7---7-0-5-5-5-0-|
A|--------|5---5-0-5-5-5-0-|5---5-0-5-5-5-0-|5---5-0-5-5-5-0-|7---7-0-5-5-5-0-|
E|--------|--------3-3-3---|--------3-3-3---|--------3-3-3---|5---5---3-3-3---|

  [D5]                 [D5]                 [D5]                o[A5]ne two t[G5]hree four
e|----------------|----------------|----------------|----------------|
B|----------------|----------------|----------------|----------------|
G|7\--------------|7\--------------|7\--------------|----------------|
D|7\--------------|7\--------------|7\--------------|7-------5-------|
A|5\--------------|5\--------------|5\--------------|7-------5-------|
E|----------------|----------------|----------------|5-------3-------|

| |
|D5 G5 D5 G5 D5 G5 A5 G5 |
e|----------------|----------------|----------------|----------------|
B|----------------|----------------|----------------|----------------|
G|7---7-----------|7---7-----------|7---7-----------|----------------|
D|7---7-0-5-5-5-0-|7---7-0-5-5-5-0-|7---7-0-5-5-5-0-|7---7-0-5-5-5-0-|
A|5---5-0-5-5-5-0-|5---5-0-5-5-5-0-|5---5-0-5-5-5-0-|7---7-0-5-5-5-0-|
E|--------3-3-3---|--------3-3-3---|--------3-3-3---|5---5---3-3-3---|

Rhy.Fig.1(Both gtrs)
  [D5]        [G5]         [D5]        [G5]         [D5]        [G5]         [A5]        [G5]                  
e|----------------|----------------|----------------|----------------|
B|----------------|----------------|----------------|----------------|
G|7---7-----------|7---7-----------|7---7-----------|----------------|
D|7---7-0-5-5-5-0-|7---7-0-5-5-5-0-|7---7-0-5-5-5-0-|7---7-0-5-5-5-0-|
A|5---5-0-5-5-5-0-|5---5-0-5-5-5-0-|5---5-0-5-5-5-0-|7---7-0-5-5-5-0-|
E|--------3-3-3---|--------3-3-3---|--------3-3-3---|5---5---3-3-3---|

end Rhy.Fig.1
  [D5]        [G5]         [D5]        [G5]         [D5]        [G5]         [A5]        [G5]                  
e|----------------|----------------|----------------|----------------|
B|----------------|----------------|----------------|----------------|
G|7---7-----------|7---7-----------|7---7-----------|----------------|
D|7---7-0-5-5-5-0-|7---7-0-5-5-5-0-|7---7-0-5-5-5-0-|7---7-0-5-5-5-0-|
A|5---5-0-5-5-5-0-|5---5-0-5-5-5-0-|5---5-0-5-5-5-0-|7---7-0-5-5-5-0-|
E|--------3-3-3---|--------3-3-3---|--------3-3-3---|5---5---3-3-3---|

VERSE:
Rhy.Fig.2(Gtr.2)
I saw an old man on the street He was in a dumpster lookin for somethin to eat
e|----------------|----------------|----------------|----------------|
B|----------------|----------------|----------------|----------------|
G|7-7-7-7-7-7-7-7-|5-5-5-5-5-5-5-5-|4-4-4-4-4-4-4-4-|2-2-2-2-2-2-2-2-|
D|----------------|----------------|----------------|----------------|
A|----------------|----------------|----------------|----------------|
E|----------------|----------------|----------------|----------------|

end Rhy.Fig.2
He moved so slow like a dyin' dream Like a machinist caught in a machine
e|----------------|----------------|----------------|----------------|
B|----------------|----------------|----------------|----------------|
G|7-7-7-7-7-7-7-7-|5-5-5-5-5-5-5-5-|4-4-4-4-4-4-4-4-|2-2-2-2-2-2-2-2-|
D|----------------|----------------|----------------|----------------|
A|----------------|----------------|----------------|----------------|
E|----------------|----------------|----------------|----------------|

Rhy.Fig.2A(Gtr.1)(w/Rhy.Fig.2)
I [D5]saw this lady she[C5] was cryin She sa[B5]id it's hard when[A5] someone you love is dyin'
e|----------------|----------------|----------------|----------------|
B|----------------|----------------|----------------|----------------|
G|7---------------|5---------------|4---------------|2---------------|
D|7---------------|5---------------|4---------------|2---------------|
A|5---------------|3---------------|2---------------|0---------------|
E|----------------|----------------|----------------|----------------|

end Rhy.Fig.2A
I [D5]saw this kid whos[C5] about 5 years ol[B5]d he was in the p[A5]ark all alone he was cold
e|----------------|----------------|----------------|----------------|
B|----------------|----------------|----------------|----------------|
G|7---------------|5---------------|4---------------|2---------------|
D|7---------------|5---------------|4---------------|2---------------|
A|5---------------|3---------------|2---------------|0---------------|
E|----------------|----------------|----------------|----------------|

PRE-CHORUS:
Rhy.Fig.3(Gtr.2)
  [D5]There___   is_   [G5]some___thing__   [B5]com____ing__     [A5]down________.
e|----------------|----------------|----------------|----------------|
B|----------------|----------------|----------------|----------------|
G|7---------------|----------------|4---------------|----------------|
D|7---7-7-7-7-7-7-|5---------------|4---4-4-4-4-4-4-|7---------------|
A|5---5-5-5-5-5-5-|5---5-5-5-5-5-5-|2---2-2-2-2-2-2-|7---7-7-7-7-7-7-|
E|----------------|3---3-3-3-3-3-3-|----------------|5---5-5-5-5-5-5-|

CHORUS:
(w/Rhy.Fig.1)(Both gtrs)
[D5]  As [G5]wic-ked as [D5]it may [G5]seem_ [D5]   As [G5]wic-ked as [A5]a-ny-thing [G5]could be
[D5]  As [G5]wic-ked as [D5]it may [G5]seem_ [D5]   As [G5]wic-ked as [A5]a-ny-thing [G5]could be
BRIDGE:
Rhy.Fig.4(Both gtrs)
  [D5] Na na na na (etc.)[G5] [A5] [G5] [D5]
e|----------------|----------------|----------------|----------------|
B|----------------|----------------|----------------|----------------|
G|7-7-7-7-7-7-7-7-|7-7-7-7---x-----|----------------|--------------7-|
D|7-7-7-7-7-7-7-7-|7-7-7-7---x-5-7-|7-7---7-7-7-7-7-|7-7-7-7---x-5-7-|
A|5-5-5-5-5-5-5-5-|5-5-5-5---x-5-7-|7-7---7-7-7-7-7-|7-7-7-7---x-5-5-|
E|----------------|------------3-5-|5-5---5-5-5-5-5-|5-5-5-5---x-3---|

end Rhy.Fig.4
                              [G5]   [A5]                               [G5]   [D5]            
e|----------------|----------------|----------------|----------------|
B|----------------|----------------|----------------|----------------|
G|7-7-7-7-7-7-7-7-|7-7-7-7---x-----|----------------|--------------7-|
D|7-7-7-7-7-7-7-7-|7-7-7-7---x-5-7-|7-7---7-7-7-7-7-|7-7-7-7---x-5-7-|
A|5-5-5-5-5-5-5-5-|5-5-5-5---x-5-7-|7-7---7-7-7-7-7-|7-7-7-7---x-5-5-|
E|----------------|------------3-5-|5-5---5-5-5-5-5-|5-5-5-5---x-3---|

Additional lyrics:
2.I know this girl she's barely alive
She's all haggard, she's only twenty-five
She said she's never had a friend before
I said: "Hey girl, I'll be your friend, but who's keeping score?"
3.I saw this other little girl on the phone
Her mother comforts her from far from home
The little girl was very hesitant
Her best friend lies dead on the pavement
4.I always end up back on the hill
Lookin' down at the landfill
I always go there when I can
My friend Marty said: "Tim, you're a lucky man"

Important: The song above is NOT stored on the Chordie server. The original song is hosted at www.xguitar.com. Chordie works as a search engine and provides on-the-fly formatting. Chordie does not index songs against artists'/composers' will. To remove this song please click here.

Text color:
Chord color:
Chord grids: 
Font size:    
Page size: 

A A5 B5 C5 D D5 G G5
variations - click chord images

Login - add to songbook

Transpose chords

Tuning

Rating click stars to rate

Layout
Accuracy

SHARE PAGE  




You need to log in to post comments