Chordie logo


Ban the Tube Top    Reel Big Fish



Song: Ban the tube top
Band: Reel Big Fish
Tabber: Gary Gatehouse

Intro:
e-----------------------------------------------------
b-----------------------------------------------------
g--7-7----7-7------------------------------------------
d-------------------4---5---6--------------------------
a------5------5-------------------------------------
e-----------------2---3---4---------------------------

Verses:

e----------------------------------
b---------------------------------
g--7-/-------------------------------
d--7-/-----x-x-4-x-x-5-------------------
a--5-/-----x-x-4-x-x-5-------------------
e----------x-x-2-x-x-3------------------

Chourus:

e-------------------------------------
b------------------------------------
g--7-----------------------------------
d--7-7-9-5-7-----------------------------
a--5-7-9-5-7-----------------------------
e----5-7-3-5-----------------------------

This is just the chords you use not how many times you strum them i think you hit each chord about 4 times

End of chourus (all muted)

e----------
b----------
g----------
d-4-5-7----
a-4-5-7----
e-2-3-5----

Bridge:

e-----------------------------------------------
b-------------8-7-8-7----------------------------
g------7--------------7-----------7-7------------
d--5-7-7-7-5-------------5-7-4----7-7-Pickslide--
a--5-7-5-7-5-------------5-7-4----5-5------------
e--3-5---5-3-------------3-5-2-------------------

Solo

e---------------------------15----14----12------------
b-10b12-10b12-10------------------------------15------
g----------------9b11-7-9-7----12----12----12---12----
d--------------------------------------------------12-
a-----------------------------------------------------
e-----------------------------------------------------

e-17b19-17b19-14h15p14------------------
b----------------------15---------------
g---------------------------------------
d---------------------------------------
a---------------------------------------
e---------------------------------------

Part after solo

youll have to listen carefully to hear them (all harmonics)

e-----------------------------------
b----12----12-----------------------
g-------12----14--------------------
d-12--------------------------------
a-----------------------------------
e-----------------------------------

Back to chourus then your done

please rate this



Important: The song above is NOT stored on the Chordie server. The original song is hosted at www.xguitar.com. Chordie works as a search engine and provides on-the-fly formatting. Chordie does not index songs against artists/composers will. To remove this song please click here.

This song is displayed as text-only. Transposing and tuning is only available for chordpro-songs.

Login - add to songbook

Rating click stars to rate

Layout
Accuracy

SHARE PAGE  




You need to log in to post comments