Guitar Tabs, Chords and Lyrics


One Hit Wonderful    Reel Big Fish



Reel Big Fish
One Hit Wonderful
album: We're not happy 'til you're not happy
standart tuning

(intro)
e-----3------------------------------------|x2
b-------3------7---------5-----7---5---7---|
g----------------7---------5---7---5---7---|
d-----------0------------------------------|
a---------------------3--------------------|
e---3--------------------------------------|

(intro ending)
e------3----------------------------------------|
b-------3------7--------------------------------|
g---------------7---5-5-5-5-5-5---7-7-7-7-7-7---|
d-----------0-------5-5-5-5-5-5---7-7-7-7-7-7---|
a-------------------3-3-3-3-3-3---5-5-5-5-5-5---|
e---3-------------------------------------------|

(verse)
e-----------------------------------------------------------|x2
b-----------------------------------------------------------|
g-----------------7-7-7-7-7-7---5-5-5-5-5-5---7-7-7-7-7-7---|
d---5-5-5-5-5-5---7-7-7-7-7-7---5-5-5-5-5-5---7-7-7-7-7-7---|
a---5-5-5-5-5-5---5-5-5-5-5-5---3-3-3-3-3-3---5-5-5-5-5-5---|
e---3-3-3-3-3-3---------------------------------------------|

e---------------------------------|x2
b---------------------------------|
g-----------------5-5-5---7-7-7---|
d---5-5-5-5-5-5---5-5-5---7-7-7---|
a---5-5-5-5-5-5---3-3-3---5-5-5---|
e---3-3-3-3-3-3-------------------|

(pre-chorus)
e-----------------------------------------------------|
b-----------------------------------------------------|
g-----------------5-5-5-5-5-5---7-7-7-7-7-7-7-7-7-7---|
d---2-2-2-2-2-2---5-5-5-5-5-5---7-7-7-7-7-7-7-7-7-7---|
a---2-2-2-2-2-2---3-3-3-3-3-3---5-5-5-5-5-5-5-5-5-5---|
e---0-0-0-0-0-0---------------------------------------|

(chorus)
e---------------------------|x3
b---------------------------|
g---7-----5-----2-----4-----|
d---7-----5-----2-----4-----|
a---5-----3-----------2-----|
e---------------------------|

(chorus ending)
e---------------------------------------------------|
b---------------------------------------------------|
g---------------------------5-5-5-5-5---7-7-7-7-7---|
d---2-2-2-2-2-2-2-2-2-2-2---5-5-5-5-5---7-7-7-7-7---|
a---2-2-2-2-2-2-2-2-2-2-2---3-3-3-3-3---5-5-5-5-5---|
e---0-0-0-0-0-0-0-0-0-0-0---------------------------|

(intro)
e-----3------------------------------------|x2
b-------3------7---------5-----7---5---7---|
g----------------7---------5---7---5---7---|
d-----------0------------------------------|
a---------------------3--------------------|
e---3--------------------------------------|

(intro ending)
e------3----------------------------------------|
b-------3------7--------------------------------|
g---------------7---5-5-5-5-5-5---7-7-7-7-7-7---|
d-----------0-------5-5-5-5-5-5---7-7-7-7-7-7---|
a-------------------3-3-3-3-3-3---5-5-5-5-5-5---|
e---3-------------------------------------------|

(verse)
e-----------------------------------------------------------|x2
b-----------------------------------------------------------|
g-----------------7-7-7-7-7-7---5-5-5-5-5-5---7-7-7-7-7-7---|
d---5-5-5-5-5-5---7-7-7-7-7-7---5-5-5-5-5-5---7-7-7-7-7-7---|
a---5-5-5-5-5-5---5-5-5-5-5-5---3-3-3-3-3-3---5-5-5-5-5-5---|
e---3-3-3-3-3-3---------------------------------------------|

e---------------------------------|x2
b---------------------------------|
g-----------------5-5-5---7-7-7---|
d---5-5-5-5-5-5---5-5-5---7-7-7---|
a---5-5-5-5-5-5---3-3-3---5-5-5---|
e---3-3-3-3-3-3-------------------|

(pre-chorus)
e-----------------------------------------------------|
b-----------------------------------------------------|
g-----------------5-5-5-5-5-5---7-7-7-7-7-7-7-7-7-7---|
d---2-2-2-2-2-2---5-5-5-5-5-5---7-7-7-7-7-7-7-7-7-7---|
a---2-2-2-2-2-2---3-3-3-3-3-3---5-5-5-5-5-5-5-5-5-5---|
e---0-0-0-0-0-0---------------------------------------|

(chorus)
e---------------------------|x3
b---------------------------|
g---7-----5-----2-----4-----|
d---7-----5-----2-----4-----|
a---5-----3-----------2-----|
e---------------------------|

(chorus ending)
e---------------------------------------------------|
b---------------------------------------------------|
g---------------------------5-5-5-5-5---7-7-7-7-7---|
d---2-2-2-2-2-2-2-2-2-2-2---5-5-5-5-5---7-7-7-7-7---|
a---2-2-2-2-2-2-2-2-2-2-2---3-3-3-3-3---5-5-5-5-5---|
e---0-0-0-0-0-0-0-0-0-0-0---------------------------|

(verse)
e-----------------------------------------------------------|x3
b-----------------------------------------------------------|
g-----------------7-7-7-7-7-7---5-5-5-5-5-5---7-7-7-7-7-7---|
d---5-5-5-5-5-5---7-7-7-7-7-7---5-5-5-5-5-5---7-7-7-7-7-7---|
a---5-5-5-5-5-5---5-5-5-5-5-5---3-3-3-3-3-3---5-5-5-5-5-5---|
e---3-3-3-3-3-3---------------------------------------------|

(verse ending)
e-------------------------------|
b-------------------------------|
g---5-5-5-5-5-5---7-7-7-7-7-7---|
d---5-5-5-5-5-5---7-7-7-7-7-7---|
a---3-3-3-3-3-3---5-5-5-5-5-5---|
e-------------------------------|

(bridge)
e---------------|x3
b---------------|
g---------5-----|
d---2-----5-----|
a---2-----3-----|
e---0-----------|

And end with the whole chorus 3 times.





Important: The song above is NOT stored on the Chordie server. The original song is hosted at www.xguitar.com. Chordie works as a search engine and provides on-the-fly formatting. Chordie does not index songs against artists'/composers' will. To remove this song please click here.

This song is displayed as text-only. Transposing and tuning is only available for chordpro-songs.

Login - add to songbook

Rating click stars to rate

Layout
Accuracy

SHARE PAGE  




You need to log in to post comments