Guitar Tabs, Chords and Lyrics


Jodie    Saves The Day



-------------------------------------------------------------------------------
JODIE - Saves The Day
-------------------------------------------------------------------------------

bass:(drop D)
A--55555555-77777777-99999975----------
D-----------------------------55555555-

guitar chords:distorted part (drop D)-
D----0----2----7----5----
A----0----2----5----5----
D----0----2----4----5----

D-----7-------7-------7-------7-------7-------7-------7-------7
A-5-5-5---5-5-5---5-5-5---5-5-5---5-5-5---5-5-5---5-5-5---5-5-5
D-5-5-5---5-5-5---5-5-5---5-5-5---4-4-4---4-4-4---4-4-4---4-4-4
p m p m p m p m p m p m p m p m

D-----7-------7-------7-------7-0
A-5-5-5---5-5-5---5-5-5---5-5-5-0
D-5-5-5---5-5-5---5-5-5---5-5-5-0 (stop me before...)
p m p m p m p m

verse:
E---------------------------0-------------
B-------3---------3-------------------8---
G-----2---2-----2---2---------------7---7-
D-0---------2---------7---7---7-5---------
A-0---------2---------5---------5---------
D-0---------2---------4---------5---------
*let root chords ring out on this part.

chorus chords: guitar 2:(play twice)
B-3---8---3-------
G-2---7---2-------
D-2---5---0------- D-9---7---5--- D-12-12121212-12-12---
A-2---5---0------- A-9---7---5--- A-10-10101010-10-10---
D-2---5---0------- E-9---7---5---
ring> pm-----]

return to verse then chorus again

solo:
G-12-11----12-11----14-12-11-14-12-11/16-14-12-11-12----12-11-------
D-------12-------12-------------------------------------------14-12-

play the verse chords for the "don't forget we sent" part and through the
rest of the song.



Important: The song above is NOT stored on the Chordie server. The original song is hosted at www.xguitar.com. Chordie works as a search engine and provides on-the-fly formatting. Chordie does not index songs against artists'/composers' will. To remove this song please click here.

This song is displayed as text-only. Transposing and tuning is only available for chordpro-songs.

Login - add to songbook

Rating click stars to rate

Layout
Accuracy

SHARE PAGE  




You need to log in to post comments