Chordie logo

Fine Again    Seether



Song: 		Fine Again
Artist: 	Seether
Album: 		Disclaimer
Transcribed by: Evan Hoffman
Email: 		justgotwicked49@hotmail.com


Here is the most complete version of this song on the internet!  Every
single detail should be as correct as it is possible to tell when listening to the song.
The timing is not included, but it isn't tricky so just listen to the song and figure it out.
Good luck!


Intro:

Guitar 1:
e|----0------0------0------0------0------0------0---------------|
B|--9---9-10---10-9---9-10---10-9---9-10---10-9---9-7-----------|
G|--------------------------------------------------------------|
D|--------------------------------------------------------------|
A|--------------------------------------------------------------|
D|--------------------------------------------------------------|

Guitar 2:
 |--------------------------------------------------------------| x2
 |--------------------------------3-3---------------------------|
 |--------------------------------2-2---------------------------|
 |------4---------7-------2-------------------------------------|
 |----4---------7---7p0-----2-----------------------------------|
 |--4-----4/7-7---------2-----2p0-------------------------------|

Verse:

Guitar 2:
 |------------------| x8
 |--------------3---|
 |--------------2---|
 |--4---7---2-------|
 |--4---7---2-------|
 |--4---7---2-------|


Guitar 1:

   5th M     6th M             7th and 8th Measure
 |-----9--|--------9-|----0------0------0---------0------0------0------|
 |--10----|-7p9-10---|--9---9-10---10-9---9-10--9---9-10---10-9---9-7--|
 |--------|----------|-------------------------------------------------|
 |--------|----------|-------------------------------------------------|
 |--------|----------|-------------------------------------------------|
 |--------|----------|-------------------------------------------------|

Chorus: (Both Guitars)
 |------------------| x4
 |------------------|
 |------7---4-------|
 |--4---7---4---2---|
 |--4---5---2---2---|
 |--4-----------2---|

Verse 2:

Guitar 2 plays intro riff for one measure

Guitar 2:
 |------------------| x7
 |--------------3---|
 |--------------2---|
 |--4---7---2-------|
 |--4---7---2-------|
 |--4---7---2-------|

Guitar 1:

     4th Measure          5th M     6th M               7th and 8th Measure
 |---0----0---0-------|-----9--|--------9-|----0------0------0---------0------0------0------|
 |-9---10---9---9-10--|--10----|-7p9-10---|--9---9-10---10-9---9-10--9---9-10---10-9---9-7--|
 |--------------------|--------|----------|-------------------------------------------------|
 |--------------------|--------|----------|-------------------------------------------------|
 |--------------------|--------|----------|-------------------------------------------------|
 |--------------------|--------|----------|-------------------------------------------------|

Chorus: (Both Guitars)
 |------------------| x4
 |------------------|
 |------7---4-------|
 |--4---7---4---2---|
 |--4---5---2---2---|
 |--4-----------2---|

Bridge:

Guitar 1:
 |--------------------------------------------------------------|
 |--------------------------------------------------------------|
 |--------------------------------------------------------------|
 |--------------------------------------------------------------|
 |--5--5/2--2/5--5/2--2/5--5/2--2/5--5/2------------------------|
 |--------------------------------------------------------------|

Guitar 2:
 |---------------------------| x3 1/2
 |---------------------------|
 |------7-----7-----4-----4--|
 |----7-----7-----4-----4----|
 |--5-----5-----2-----2------|
 |---------------------------|

Solo:

Guitar 2: Play Chorus

Guitar 1:
 |---9---10---9---10---9---10---9---10---9---10---9---10---9---10----|
 |-----7----7---7----7---7----7---7----7---7----7---7----7---7----7--|
 |-------------------------------------------------------------------|
 |-------------------------------------------------------------------|
 |-------------------------------------------------------------------|
 |-------------------------------------------------------------------|
					

 |--9---10---9---10---9---10---9---10---9---10---9---10---9---10----|
 |----7----7---7----7---7----7---7----7---7----7---7----7---7----7--|
 |------------------------------------------------------------------|
 |------------------------------------------------------------------|
 |------------------------------------------------------------------|

 |------------------------------------------------------------------|


 |--9---10---12----10---9---10---9---10---9---10---9---10---9---10-----|
 |----7----7----10----7---7----7---7----7---7----7---7----7---7----7---|
 |---------------------------------------------------------------------|
 |---------------------------------------------------------------------|
 |---------------------------------------------------------------------|
 |---------------------------------------------------------------------|


 |--9---10---9---10---9---10---12----10---9---10---12----10-----|
 |----7----7---7----7---7----7----10----7---7----7----10----7---|
 |--------------------------------------------------------------|
 |--------------------------------------------------------------|
 |--------------------------------------------------------------|
 |--------------------------------------------------------------|

 |--9---10---12----10---9---10---12----10---9---10---12----10---|
 |----7----7----10----7---7----7----10----7---7----7----10----7-|
 |--------------------------------------------------------------|
 |--------------------------------------------------------------|
 |--------------------------------------------------------------|
 |--------------------------------------------------------------|

 |--9---10---9---10---9---10---9---10---9---10---12----10-------|
 |----7----7---7----7---7----7---7----7---7----7----10----7-----|
 |--------------------------------------------------------------|
 |--------------------------------------------------------------|
 |--------------------------------------------------------------|
 |--------------------------------------------------------------|

 |--9---10---9---10---9---10---9---10---9---10---12----10-------|
 |----7----7---7----7---7----7---7----7---7----7----10----7-----|
 |--------------------------------------------------------------|
 |--------------------------------------------------------------|
 |--------------------------------------------------------------|
 |--------------------------------------------------------------|

 |--12----12----12----12----12----12----12----12----12----12----|
 |-----10----10----10----10----10----10----10----10----10----10-|
 |--------------------------------------------------------------|
 |--------------------------------------------------------------|
 |--------------------------------------------------------------|
 |--------------------------------------------------------------|

 |--12----12----12----12----12----12-------9~-------------------|
 |-----10----10----10----10----10----10----7~-------------------|
 |--------------------------------------------------------------|
 |--------------------------------------------------------------|
 |--------------------------------------------------------------|
 |--------------------------------------------------------------|

End on this note:
 |---------------|
 |---------------|
 |---------------|
 |--4------------|
 |--4------------|


Important: The song above is NOT stored on the Chordie server. The original song is hosted at www.xguitar.com. Chordie works as a search engine and provides on-the-fly formatting. Chordie does not index songs against artists/composers will. To remove this song please click here.

This song is displayed as text-only. Transposing and tuning is only available for chordpro-songs.

Login - add to songbook

Rating click stars to rate

Layout
Accuracy

SHARE PAGE  

You need to log in to post comments