"yes"; ?> Sympathetic by Seether - guitar chords, guitar tabs and lyrics - chordie

Sympathetic

Seether

|---0-------0-------0-------0--|

|------------------------------|
|-2---2---2---2---2---2---2---2|
|2------2-------2-------2------|x4
|------------------------------|
|------------------------------|

 DAG
And my words will be here when I217;m gone
 DAG
As IR17;m fading away against the wind
 DAG
And the words you left me linger on
 DAG
As IR17;m failing again now, never to change this

Chorus
|---P.M-----|
|-----------|----------------------------------------------------------------|
|-----------|----------------------------------------------------------------|
|0-0-0-0-0-0|7-7-7-7-7-7-7-7-4-4-4-4-4-4-4-4---------------------------------|
|0-0-0-0-0-0|7-7-7-7-7-7-7-7-4-4-4-4-4-4-4-4-5-5-5-5-5-5-5-5-5-5-5-5-5-5-5-5-|
|0-0-0-0-0-0|5-5-5-5-5-5-5-5-2-2-2-2-2-2-2-2-5-5-5-5-5-5-5-5-5-5-5-5-5-5-5-5-|
|-----------|--------------------------------3-3-3-3-3-3-3-3-3-3-3-3-3-3-3-3-|
|----------------------------------------------------------------|
|----------------------------------------------------------------|
|7-7-7-7-7-7-7-7-4-4-4-4-4-4-4-4---------------------------------|
|7-7-7-7-7-7-7-7-4-4-4-4-4-4-4-4-5-5-5-5-5-5-5-5-5-5-5-5-5-5-5-5-|
|5-5-5-5-5-5-5-5-2-2-2-2-2-2-2-2-5-5-5-5-5-5-5-5-5-5-5-5-5-5-5-5-|
|--------------------------------3-3-3-3-3-3-3-3-3-3-3-3-3-3-3-3-|


 DAG
And it seems IR17;m alone here, hollow again
 DAG
As IR17;m flailing again against the wind
 DAG
And the scars I am left with swallow again
 DAG
As I̵7;m failing again now, never to change this

Chorus
|----------------------------------------------------------------|
|----------------------------------------------------------------|
|7-7-7-7-7-7-7-7-4-4-4-4-4-4-4-4---------------------------------|
|7-7-7-7-7-7-7-7-4-4-4-4-4-4-4-4-5-5-5-5-5-5-5-5-5-5-5-5-5-5-5-5-|
|5-5-5-5-5-5-5-5-2-2-2-2-2-2-2-2-5-5-5-5-5-5-5-5-5-5-5-5-5-5-5-5-|
|--------------------------------3-3-3-3-3-3-3-3-3-3-3-3-3-3-3-3-|
|----------------------------------------------------------------|
|----------------------------------------------------------------|
|7-7-7-7-7-7-7-7-4-4-4-4-4-4-4-4---------------------------------|
|7-7-7-7-7-7-7-7-4-4-4-4-4-4-4-4-5-5-5-5-5-5-5-5-5-5-5-5-5-5-5-5-|
|5-5-5-5-5-5-5-5-2-2-2-2-2-2-2-2-5-5-5-5-5-5-5-5-5-5-5-5-5-5-5-5-|
|--------------------------------3-3-3-3-3-3-3-3-3-3-3-3-3-3-3-3-|
|----------------------------------------------------------------|
|----------------------------------------------------------------|
|7-7-7-7-7-7-7-7-4-4-4-4-4-4-4-4---------------------------------|
|7-7-7-7-7-7-7-7-4-4-4-4-4-4-4-4-5-5-5-5-5-5-5-5-5-5-5-5-5-5-5-5-|
|5-5-5-5-5-5-5-5-2-2-2-2-2-2-2-2-5-5-5-5-5-5-5-5-5-5-5-5-5-5-5-5-|
|--------------------------------3-3-3-3-3-3-3-3-3-3-3-3-3-3-3-3-|
|----------------------------------------------------------------|
|----------------------------------------------------------------|
|7-7-7-7-7-7-7-7-4-4-4-4-4-4-4-4---------------------------------|
|7-7-7-7-7-7-7-7-4-4-4-4-4-4-4-4-5-5-5-5-5-5-5-5-5-5-5-5-5-5-5-5-|
|5-5-5-5-5-5-5-5-2-2-2-2-2-2-2-2-5-5-5-5-5-5-5-5-5-5-5-5-5-5-5-5-|
|--------------------------------3-3-3-3-3-3-3-3-3-3-3-3-3-3-3-3-|


" The Same old feeling is taking over"
|----------------------------------------------------------------|
|----------------------------------------------------------------|
|--------------------------------7-7-7-7-7-7-7-7-----------------|
|2-2-2-2-2-2-2-2-5-5-5-5-5-5-5-5-7-7-7-7-7-7-7-7-7-7-7-7-7-7-7-7-|
|2-2-2-2-2-2-2-2-5-5-5-5-5-5-5-5-5-5-5-5-5-5-5-5-7-7-7-7-7-7-7-7-|
|0-0-0-0-0-0-0-0-3-3-3-3-3-3-3-3-----------------5-5-5-5-5-5-5-5-|
|----------------------------------------------------------------|
|----------------------------------------------------------------|
|--------------------------------7-7-7-7-7-7-7-7-----------------|
|2-2-2-2-2-2-2-2-5-5-5-5-5-5-5-5-7-7-7-7-7-7-7-7-7-7-7-7-7-7-7-7-|
|2-2-2-2-2-2-2-2-5-5-5-5-5-5-5-5-5-5-5-5-5-5-5-5-7-7-7-7-7-7-7-7-|
|0-0-0-0-0-0-0-0-3-3-3-3-3-3-3-3-----------------5-5-5-5-5-5-5-5-|
|----------------------------------------------------------------|
|----------------------------------------------------------------|
|--------------------------------7-7-7-7-7-7-7-7-----------------|
|2-2-2-2-2-2-2-2-5-5-5-5-5-5-5-5-7-7-7-7-7-7-7-7-7-7-7-7-7-7-7-7-|
|2-2-2-2-2-2-2-2-5-5-5-5-5-5-5-5-5-5-5-5-5-5-5-5-7-7-7-7-7-7-7-7-|
|0-0-0-0-0-0-0-0-3-3-3-3-3-3-3-3-----------------5-5-5-5-5-5-5-5-|
|---------------------------------|
|---------------------------------|
|--------------------------------7|
|2-2-2-2-2-2-2-2-5-5-5-5-5-5-5-5-7|
|2-2-2-2-2-2-2-2-5-5-5-5-5-5-5-5-5|
|0-0-0-0-0-0-0-0-3-3-3-3-3-3-3-3--|


Chorus
|----------------------------------------------------------------|
|----------------------------------------------------------------|
|7-7-7-7-7-7-7-7-4-4-4-4-4-4-4-4---------------------------------|
|7-7-7-7-7-7-7-7-4-4-4-4-4-4-4-4-5-5-5-5-5-5-5-5-5-5-5-5-5-5-5-5-|
|5-5-5-5-5-5-5-5-2-2-2-2-2-2-2-2-5-5-5-5-5-5-5-5-5-5-5-5-5-5-5-5-|
|--------------------------------3-3-3-3-3-3-3-3-3-3-3-3-3-3-3-3-|
|----------------------------------------------------------------|
|----------------------------------------------------------------|
|7-7-7-7-7-7-7-7-4-4-4-4-4-4-4-4---------------------------------|
|7-7-7-7-7-7-7-7-4-4-4-4-4-4-4-4-5-5-5-5-5-5-5-5-5-5-5-5-5-5-5-5-|
|5-5-5-5-5-5-5-5-2-2-2-2-2-2-2-2-5-5-5-5-5-5-5-5-5-5-5-5-5-5-5-5-|
|--------------------------------3-3-3-3-3-3-3-3-3-3-3-3-3-3-3-3-|
|----------------------------------------------------------------|
|----------------------------------------------------------------|
|7-7-7-7-7-7-7-7-4-4-4-4-4-4-4-4---------------------------------|
|7-7-7-7-7-7-7-7-4-4-4-4-4-4-4-4-5-5-5-5-5-5-5-5-5-5-5-5-5-5-5-5-|
|5-5-5-5-5-5-5-5-2-2-2-2-2-2-2-2-5-5-5-5-5-5-5-5-5-5-5-5-5-5-5-5-|
|--------------------------------3-3-3-3-3-3-3-3-3-3-3-3-3-3-3-3-|
|----------------------------------------------------------------|
|----------------------------------------------------------------|
|7-7-7-7-7-7-7-7-4-4-4-4-4-4-4-4---------------------------------|
|7-7-7-7-7-7-7-7-4-4-4-4-4-4-4-4-5-5-5-5-5-5-5-5-5-5-5-5-5-5-5-5-|
|5-5-5-5-5-5-5-5-2-2-2-2-2-2-2-2-5-5-5-5-5-5-5-5-5-5-5-5-5-5-5-5-|
|--------------------------------3-3-3-3-3-3-3-3-3-3-3-3-3-3-3-3-|
|----------------------------------------------------------------|
|----------------------------------------------------------------|
|7-7-7-7-7-7-7-7-4-4-4-4-4-4-4-4---------------------------------|
|7-7-7-7-7-7-7-7-4-4-4-4-4-4-4-4-5-5-5-5-5-5-5-5-5-5-5-5-5-5-5-5-|
|5-5-5-5-5-5-5-5-2-2-2-2-2-2-2-2-5-5-5-5-5-5-5-5-5-5-5-5-5-5-5-5-|
|--------------------------------3-3-3-3-3-3-3-3-3-3-3-3-3-3-3-3-|
|----------------------------------------------------------------|------|
|----------------------------------------------------------------|------|
|7-7-7-7-7-7-7-7-4-4-4-4-4-4-4-4---------------------------------|--7~--|
|7-7-7-7-7-7-7-7-4-4-4-4-4-4-4-4-5-5-5-5-5-5-5-5-5-5-5-5-5-5-5-5-|--7~--|
|5-5-5-5-5-5-5-5-2-2-2-2-2-2-2-2-5-5-5-5-5-5-5-5-5-5-5-5-5-5-5-5-|--5~--|
|--------------------------------3-3-3-3-3-3-3-3-3-3-3-3-3-3-3-3-|------|


There we Go!!!! that's the end of the song, It's a total |{iller tune

if you enjoy this tab, let me know
If you have critisicm, let me know
If you have corrections. let me know

Send em all to
nagle5000@yahoo.com

PLEAS NOTE, THERE IS A FIX UP AT " SAME OLD FEELINGS ARE TAKING OVER " I HAD IT AS PLAYING THE A POWER CHORD BUT INSTEAD ITS ACTUALLY E. THIS ERROR WAS FOUND BY NILROY CHATTERJEE. THANKS NILROY


A D G
variations - click chord images
Transpose chords:
Tuning:
Cool service:
View: Size:
A  A  A
Rating:
Layout:
  • Currently 3.1/5 Stars.
  • 1
  • 2
  • 3
  • 4
  • 5
 
Accuracy:
  • Currently 3.2/5 Stars.
  • 1
  • 2
  • 3
  • 4
  • 5
 
click stars to rate
Chordie recommends:
Learn how to play guitar at JamPlay.com
Songbook:
Login to add this song to your songbook
Support the artist
Preview/buy this song
MSN Music
Why this non-profit ad?

 
login to add comments/video/corrections