Guitar Tabs, Chords and Lyrics


Mass Hypnosis   Sepultura



Date: Tue, 19 Feb 2002 20:24:26 -0600





Email me: iplaybass@ev1.net

This is mass hypnosis by sepultura off of Beneath the Remains album

This is the best tab of this song that ive ever seen so far
but i know this- the entire song is here and hopefully perfectly correct
(standard tuning-eadgbe)
enjoy!
play this riff 8x
E ---------------------------------|---------|
B ---------------------------------|---------|
G ---------------------------------|---------|
D ---------------------------------|---------|
A ---------------------------------|-3-3-3-3-|
E -1-1-1-1-1-1-1-1-1-1-1-1-1-1-1-1-|-1-1-1-1-|
and then guitar 2 comes in with this 2x
E -----------------------------|-13-14----14-|
B -----------------------------|-------15----|
G -----------------------------|-------------|
D -----------------------------|-------------|
A -----------------------------|-------------|
E -1-1-1-1-1-1-1-1-1-1-1-1-1-1-|-------------|
        

E -----------------------------|-13-14-13-14-|
B -----------------------------|-------------|
G -----------------------------|-------------|
D -----------------------------|-------------|
A -----------------------------|-------------|
E -1-1-1-1-1-1-1-1-1-1-1-1-1-1-|-------------|
E -----------------|---------------------|
B -----------------|---------------------|
G -----------------|---------------------|
D -----------------|---------------------|
A -3-333-333-333-3-|-3-333-333-333-3-----|
E -1-111-111-111-1-|-1-111-111-111-1-----|

2x                                       1x
E ------------------|------------------|---------------|
B ------------------|------------------|---------------|
G ------------------|------------------|---------------|
D ------------------|------------------|---------------|
A -3-333-333-333333-|-3-333-333-333333-|-3-333-3333-33-|
E -1-111-111-111111-|-1-111-111-111111-|-1-111-1111-11-|

  
verse-fast picking            and then this is the chorus    
E ----------------|-----------------|-----|-----------------|-----|
B ----------------|-----------------|-----|-----------------|-----|
G ----------------|-----------------|-----|-----------------|-----|
D ----------------|-----------------|-4-3-|-----------------|-4-3-|
A ----------------|-2-2-2-2-2-2-2-2-|-2-1-|-2-2-2-2-2-2-2-2-|-2-1-|
E -2-0-2-0-2-0-4-0|-0-0-0-0-0-0-0-0-|-----|-0-0-0-0-0-0-0-0-|-----|
          i love this part
E -----|--------------------------------|---------------------------|
B -----|--------------------------------|---------------------------|
G -----|--------------------------------|---------------------------|
D -3-9-|-3--6-3-3-6-3-3-6-3-------------|-6-3-3-6-3-3-6-3-----------|
A -1-7-|-1------------------6-3-------3-|-----------------6-3-------|
E -----|------------------------6-4-3-1-|---------------------6-4-3-|

		   play this riff 4x
E -----------|-----------------------------|----------|
B -----------|-----------------------------|----------|
G -----------|-----------------------------|----------|
D -----------|---------4----------4------4-|----------|
A -3-3-3-3-3-|-3-3-3-3-2--3-3-3-3-2--3-3-2-|-3-3--3-3-|
E -1-1-1-1-1-|-1-1-1-1----1-1-1-1----1-1---|-1-1--1-1-|
 solo 1- this should be correct
 guitar 2 plays the above riff while Andreas kicks into solo 2x
E ----------------------7-7-8-7-5---|----------------------7-7-8-7-5---|
B --------9-10--------9-----------9-|--------9-10--------9-----------9-|
G -7-9-10------7-9-10---------------|-7-9-10------7-9-10---------------|
D ----------------------------------|----------------------------------|
A ----------------------------------|----------------------------------|
E ----------------------------------|----------------------------------|

both guitars join for this 2x
E -----------------------------------|----------------------------------|
B -----------------------------------|----------------------------------|
G -10-9-7-9-7----7-------------------|-10-9-7-9-7---7-------------------|
D ------------10---10-9-10-9-7-6-----|------------10--10-9-10-9-7-6-----|
A -------------------------------9-7-|------------------------------9-7-|
E -----------------------------------|----------------------------------|

4x
E -------------------|
B -------------------|
G -------------------|
D -------------------|
A -----------------2-|
E -0-0-0-0-0-0-0-0-0-|
2x
E -----|-----------------|------------------|
B -----|-----------------|------------------|
G -----|-----------------|------------------|
D -9-7-|-10----10--------|-10----10---------|
A -7-5-|-8-8-8-8-8-8-8-8-|-8-8-8-8--8-8-8-8-|
E -----|-----------------|------------------|

                       

clean sound- let ring 6x          this is the opening to solo 2 
E --------------|--------------|----------------------------|
B --------------|--------------|-1---/--8-9-8--1---/--8-9-8-|
G -----0----0-0-|-----0----0-0-|----------------------------|
D ---5----5-----|---5----5-----|----------------------------|
A -3------------|--------------|----------------------------|
E --------------|-4------------|----------------------------|

  
   do this 2x and then do it 2x more an octave higher        
E -----------------------------|-------------------|
B -8---11-9h11p9-8-6-6/8h9-9-8-|-9-8h9p8/6-6h9-9-8-|
G -----------------------------|-------------------|
D -----------------------------|-------------------|
A -----------------------------|-------------------|
E -----------------------------|-------------------|

  (octave)
E -20~-----18-20-18-16-15-16-13-13-13~~--|-----------------------16h18p16-|
B ---------------------------------------|-16-18-20--18-16-18-20----------|
G ---------------------------------------|--------------------------------|
D ---------------------------------------|--------------------------------|
A ---------------------------------------|--------------------------------|
E ---------------------------------------|--------------------------------|

E --------------------------------------------------------|
B -20-18-16-15----------15-16-18-16-15--------------------|
G -------------17-15-17----------------17-15-13/15h17-17~-|
D --------------------------------------------------------|
A --------------------------------------------------------|
E --------------------------------------------------------|

E ------------------------------------------------------------|
B ------------------------------------------------------------|
G -5h7-7-7~--7-7------------bend------bend------bend----------|
D -------------------------5h6p5---5-5h6p5---5-6p5---5~-5~~---|
A --------------6-6/8-8-8~-------8---------8-------8----------|
E ------------------------------------------------------------|

after this it repeats the beginning and the verses.....


like i said- this should do a lot of help to many of you


Important: The song above is NOT stored on the Chordie server. The original song is hosted at www.xguitar.com. Chordie works as a search engine and provides on-the-fly formatting. Chordie does not index songs against artists'/composers' will. To remove this song please click here.

This song is displayed as text-only. Transposing and tuning is only available for chordpro-songs.

Login - add to songbook

Rating click stars to rate

Layout
Accuracy

SHARE PAGE  




You need to log in to post comments