Guitar Tabs, Chords and Lyrics


Mayhem   Sepultura



h  = hammer-on
 p  = pull-off
 b  = bend
 r  = bend release
 /  = slide up/down
 = natural harmonic
[5] = artifical harmonic
 ~  = vibrato
 tr = trill
E|----||--------------------------------|----------------------------|---------
B|----||--------------------------------|----------------------------|---------
G|----||--------------------------------|----------------------------|---------
D|----||--------------------------------|----------------------------|---------
A|-3--||-----------------7--------------|-8----------------------8---|---------
E|-1--||-0-0-0-0-0-0-0-0----0-0-0-0-0-0-|----0-0-0-0-0-0-0-0-0-0-6---|-0-0-0-0-


                                                     Verse
E|------------------------|------------------------||---------------------------
B|------------------------|------------------------||---------------------------
G|------------------------|------------------------||---------------------------
D|------------------------|------------------------||---------------------------
A|---------7--------------|-8--------------3---3---||---------------------------
E|-0-0-0-0----0-0-0-0-0-0-|----0-0-0-0-0-0-1---1---||-6-6-6-6-6-6-6-6-6-6-6-6-6-


                                                                         Chorus
E|-------||---------------------------------|--------------------------||-------
B|-------||---------------------------------|--------------------------||-------
G|-------||---------------------------------|--------------------------||-------
D|-------||---------------------------------|--------------------------||-------
A|-------||-3-3-3-3-3-3-3-3-3-3-3-3-3-3-3-3-|-2-2-2-2-2-2-2-2-5--4--5--||-2-----
E|-6-6-6-||---------------------------------|-----------------3--2--3--||-0---0-

E---------------|---------------------||---------------------|-----------------
B---------------|---------------------||---------------------|-----------------
G---------------|---------------------||---------------------|-----------------
D---------------|---------------------||-3-------------------|-----------------
A-----2---------|-2---------5\-4/-5---||-1---------2---------|-2---------5\-4/-
E--0--0---0--0--|-0---0--0--3\-2/-3---||-----0--0--0---0--0--|-0---0--0--3\-2/-

E|-----||-------------------------|-----------------------||-----||-------------
B|-----||-------------------------|-----------------------||-----||-------------
G|-----||-------------------------|-----------------------||-----||-------------
D|-----||-------------------------|-----------------------||-----||-------------
A|-5---||-------------1-----------|-------------------1---||-2---||-------------
E|-3---||-0--0--0--0-----0--0--0--|-1--0--0--0--1--0------||-0---||-0-0-0-0-0-0-

E|--------------------|-------------------------||-----------------------------
B|--------------------|-------------------------||-----------------------------
G|--------------------|-------------------------||-----------------------------
D|--------------------|-------------------------||---------8--7----------------
A|--------------------|-------------------------||-0-0-0-0-------0-0-0-0-8--7--
E|-0-0-1--0-0-0-0-0-0-|-3--0-0-0-0-0-0-1h3--1---||-----------------------------


                                      Solo
E-|---------------------------------||---------------------|-------------------
B-|---------------------------------||---------------------|-------------------
G-|---------------------------------||---------------------|-------------------
D-|---------------------------------||---------------------|-------------------
A-|-6-6-6-6-6-6-6-6-6-6-6-6-6-6-6-6-||-4---------4---------|-4---------4/-5--5-
E-|---------------------------------||-2---2--2--2---2--2--|-2---2--2--2/-3--3-

E|---|---------------------|---------------------||-----------------------------
B|---|---------------------|---------------------||-----------------------------
G|---|---------------------|---------------------||-----------------------------
D|---|---------------------|---------------------||-----------------------------
A|---|-4---------4---------|-4---------4\-3--3---||-----------------------------
E|---|-2---2--2--2---2--2--|-2---2--2--2\-1--1---||-2-2-2-2-2-2-2-2-2-2-2-2-2-2-

E|-----|-----------------------------|---------------------------------|-------
B|-----|-----------------------------|---------------------------------|-------
G|-----|-----------------------------|---------------------------------|-------
D|-----|-----------------------------|---------------------------------|-------
A|-----|-------------------------5---|---------------------------------|-3--3--
E|-2-2-|-2-2-2-2-2-2-2-2-2-2-2-2-3---|-2-2-2-2-2-2-2-2-2-2-2-2-2-2-2-2-|-1--1--


                 Ending
E|-------------||---------|--------------|----||-
B|-------------||---------|--------------|----||-
G|-------------||---------|--------------|----||-
D|-------------||---------|--------------|----||-
A|-3--3--3--3--||-2---2---|-2---5--4--5--|-2--||-


Important: The song above is NOT stored on the Chordie server. The original song is hosted at www.xguitar.com. Chordie works as a search engine and provides on-the-fly formatting. Chordie does not index songs against artists'/composers' will. To remove this song please click here.

This song is displayed as text-only. Transposing and tuning is only available for chordpro-songs.

Login - add to songbook

Rating click stars to rate

Layout
Accuracy

SHARE PAGE  




You need to log in to post comments