Chordie logo


Dusted   Sepultura



Sepultura (Roots)

DUSTED - tabbed by Vogi 
Tuned down 2 1/2 steps

e|----------------------------|
B|----------------------------|
G|----------------------------|
D|----------------------------|
A|----------------------2--2--|
E|--4-3--1-3--4-3--1-3--0--0--|

e|---------------------------|
B|---------------------------|
G|---------------------------|
D|---------------------------|
A|--6\5--3/5--6\5--3/5--2----|
E|--4\3--1/3--4\3--1/3--0----|

e|--------------------|--------------------|
B|--------------------|--------------------|
G|--------------------|--------------------|
D|--------------------|--------------------|
A|--------------------|--2-4-2-5--2-6-2-8--|
E|--0-2-0-3--0-4-0-6--|--0-2-0-3--0-4-0-6--|

e|----------------------------|
B|----------------------------|
G|----------------------------|
D|----------------------------|
A|--2-4--2-5-...-2-4--2-9--8--|
E|--0-2--0-3-...-0-2--0-7--6--|

e|---------------------------------------|
B|---------------------------------------|
G|---------------------------------------|
D|---------------------------------------|
A|-----5--6-----5--6-----5--6-----5-6-5--|
E|--0--3--4--0--3--4--0--3--4---0-3-4-3--|

e|-------------------------------|
B|-------------------------------|
G|-------------------------------|
D|--6------6---------------------|
A|--4--5-5-4--5-5-2--5-5-2--5-5--|
E|-----3-3----3-3-0--3-3-0--3-3--|

e|-----------------------------|
B|-----------------------------|
G|-----------------------------|
D|--3--------------------------|
A|--1-22-2-3-22-2-3-(/)66-6-6--|
E|----00-0-1-00-0-1-(/)44-4-4--|

e|---------------|
B|---------------|
G|---------------|
D|---------------|
A|----3-----2----|
E|--0-1---0-0----|

Tabbed by Vogi (vogi@geocities.com)


Important: The song above is NOT stored on the Chordie server. The original song is hosted at www.xguitar.com. Chordie works as a search engine and provides on-the-fly formatting. Chordie does not index songs against artists/composers will. To remove this song please click here.

This song is displayed as text-only. Transposing and tuning is only available for chordpro-songs.

Login - add to songbook

Rating click stars to rate

Layout
Accuracy

SHARE PAGE  




You need to log in to post comments