Chordie logo


Endangered Species   Sepultura



Sepultura (Roots)

ENDANGERED SPECIES - tabbed by Vogi 
Tuned down 2 1/2 steps

e|-----------------|
B|-----------------|
G|-----------------|
D|-----------------|
A|-2-2--2-2--//1~--|
E|-0-0--0-0--------|

e|----------------------------------|
B|----------------------------------|
G|----------------------------------|
D|----------------------------------|
A|----------------------------------|
E|-6^0-0-0-0-0-6^0-0-0-0-0-1^0-3^0--|
e|-----------------------------------|
B|-----------------------------------|
G|-----------------------------------|
D|--3-----------3--------------------|
A|--1-----------1--------------------|
E|----0-0-0-0-0---0-0-0-0-0-1^0-3^0--|

e|-------------------------|
B|-------------------------|
G|-------------------------|
D|-------------------------|
A|--2-2--7-8-7-6--5-6-5-3--|
E|--0-0--5-6-5-4--3-4-3-1--|

e|----------------------------------|
B|----------------------------------|
G|----------------------------------|
D|----------------------------------|
A|----------------------------------|
E|-6^0-x-x-x-x-6^0-x-x-x-x-1^0-3^0--|
Tabbed by Vogi (vogi@geocities.com)
(not sure about this tab)


Important: The song above is NOT stored on the Chordie server. The original song is hosted at www.xguitar.com. Chordie works as a search engine and provides on-the-fly formatting. Chordie does not index songs against artists/composers will. To remove this song please click here.

This song is displayed as text-only. Transposing and tuning is only available for chordpro-songs.

Login - add to songbook

Rating click stars to rate

Layout
Accuracy

SHARE PAGE  




You need to log in to post comments