Chordie logo

Better Version    Shinedown



Shinedown - Better Version
Tabbed By: Happypu2004
Email: gilmorej@purdue.edu

this is my first song i've ever tabbed so if you have any questions let me know

Tuning: Drop D (D A D G B E)


intro/main riff
E|-----------------------------------------------||
B|-----------------------------------------------||
G|-----------------------------------------------||
D|---4-2-4------4-2-4-4/5\4----------------------||
A|-2----------2----------------------------------||
D|-----------------------------------------------||
main chords
E|-----------------------------------------------||
B|-----------------------------------------------||
G|-----------------------------------------------||
D|---9-9--0-0-0--2-2--5-5-5----------------------|| 4x
A|---9-9--0-0-0--2-2--5-5-5----------------------||
D|---9-9--0-0-0--2-2--5-5-5----------------------||
pre chorous
E|-----------------------------------------------||
B|-----------------------------------------------||
G|-----------------------------------------------||
D|--4-4/7-2-2--4/7-2/3---------------------------|| 2x
A|--4-4/7-2-2--4/7-2/3---------------------------||
D|--4-4/7-2-2--4/7-2/3---------------------------||

chorus
E|-----------------------------------------------||
B|-----------------------------------------------||
G|-----------------------------------------------||
D|--9-9--0-0--4-4/5-5--9-9--0-0--2-2/5-5---------|| 2x
A|--9-9--0-0--4-4/5-5--9-9--0-0--2-2/5-5---------||
D|--9-9--0-0--4-4/5-5--9-9--0-0--2-2/5-5---------||

breakdown(2:20)
E|-----------------------------------------------||
B|-----------------------------------------------||
G|-----------------------------------------------||
D|--8/9-9--4-4--8/9-9--2-22-5--------------------||
A|--8/9-9--4-4--8/9-9--2-22-5--------------------||
D|--8/9-9--4-4--8/9-9--2-22-5--------------------||
				play this 2nd time
				|
breakdown(cont)		\/
E|-----------------------------------------------||
B|-----------------------------------------------||
G|-----------------------------------------------||
D|--8/9-9--4-4--8/9-9--2-22-0--------------------||
A|--8/9-9--4-4--8/9-9--2-22-0--------------------||
D|--8/9-9--4-4--8/9-9--2-22-0--------------------||


order:
intro/main riff
main chords
pre chorous
chorous
main chords
pre chorous
chorous
breakdown
main riff

chorous 2x


Important: The song above is NOT stored on the Chordie server. The original song is hosted at www.xguitar.com. Chordie works as a search engine and provides on-the-fly formatting. Chordie does not index songs against artists/composers will. To remove this song please click here.

This song is displayed as text-only. Transposing and tuning is only available for chordpro-songs.

Login - add to songbook

Rating click stars to rate

Layout
Accuracy

SHARE PAGE  

You need to log in to post comments