Guitar Tabs, Chords and Lyrics


Blow Away   Staind



staind
14 shades of grey
blow away

drop d tunning

through the song it has this echo sound that is probably made with
a keyboard but the rest you can play with a guitar.

intro
e---------------------------------------------------
b-------6----------3----------6----------3----------
g---------------------------------------------------
d---------------------------------------------------
a---------------------------------------------------
d---------------------------------------------------

riff 1
e---------------------------------------------------
b-----10-----6----5----3-----10-----6----5----3-----      repeat
g-------------------------3/---------------------3/-    as needed
d---------------------------------------------------
a---------------------------------------------------
d---------------------------------------------------

chorus
e---------------------------------------------------
b---------------------------------------------------      listen
g---------------------------------------------------    to song for
d----8-8-11-10-10---4-4-4-----6-6-6-----------------     strumming
a----8-8-8--8--8----4-4-4-----6-6-6-----------------
d----8-8-8--8--8----4-4-4-----6-6-6-----------------

riff 2
e---------------------------------------------------
b-----1h2p1h2p1h2p1h2p1h2p1h2-----------------------
g---------------------------------------------------      4 times
d---------------------------------------------------
a---------------------------------------------------
d---------------------------------------------------

outro
e---------------------------------------------------
b---------6--------3--------6--------3--------------
g------3--------3--------3--------3-----------------
d---------------------------------------------------
a---------------------------------------------------
d---------------------------------------------------

echo sound ends the song


My MaStEr PlAn

-intro
-riff 1
-chorus
-riff 2
-riff 1
-chorus
-riff 2
-riff 1
-chorus
-riff 2
-riff 1
-outro



Important: The song above is NOT stored on the Chordie server. The original song is hosted at www.xguitar.com. Chordie works as a search engine and provides on-the-fly formatting. Chordie does not index songs against artists'/composers' will. To remove this song please click here.

This song is displayed as text-only. Transposing and tuning is only available for chordpro-songs.

Login - add to songbook

Rating click stars to rate

Layout
Accuracy

SHARE PAGE  




You need to log in to post comments