Guitar Tabs, Chords and Lyrics


Chitlins con Carne    Stevie Ray Vaughan



Artist - Stevie Ray Vaughan
Song - Chitlin's Con Carne


E|----------------------------|--------------------------|--------------------------|
B|----------------------------|--------------------------|--------------------------|
G|----------------------------|--------------------------|--------------------------|
D|------------------2---------|-----2-4------------------|------------------2-------|
A|------2--2--5--2-----2------|------------2--5----------|------2--2--5--2-----2----|
E|----------------------------|--------------------------|--------------------------|

E|----------------------------|--------------------------|--------------------------|
B|----------------7-----------|--------------------------|--------------------------|
G|----------------7-----------|--------------------------|--------------------------|
D|----------------6-----------|------------------2-------|-----2-4------------------|
A|----------------------------|------2--2--5--2-----2----|------------2--5----------|
E|----------------------------|--------------------------|--------------------------|

E|----------------------------|--------------------------|--------------------------|
B|----------------------------|----------------7---------|--------------------------|
G|----------------------------|----------------7---------|--------------------------|
D|------------------2---------|----------------6---------|------------------2-------|
A|------2--2--5--2-----2------|--------------------------|------2--2--5--2-----2----|
E|----------------------------|--------------------------|--------------------------|

E|----------------------------|--------------------------|--------------------------|
B|----------------------------|--------------------------|--------------------------|
G|-----------2----------------|--------------------------|--------------------------|
D|---2-4--------------2--2----|--------------------------|--------------------------|
A|----------------------------|----------------5~--------|-------------2------------|
E|----------------------------|--------------------------|--------------------------|

E|----------------------------|--------------------------|--------------------------|
B|----------------------------|--------------------------|--------------------------|
G|----------------------------|--------------------------|--------------------------|
D|------------------2---------|-----2-4------------------|------------------2-------|
A|------2--2--5--2-----2------|------------2--5----------|------2--2--5--2-----2----|
E|----------------------------|--------------------------|--------------------------|

E|----------------------------|--------------------------|--------------------------|
B|----------------7-----------|--------------------------|--------------------------|
G|----------------7-----------|--------------------------|--------------------------|
D|----------------6-----------|------------------2-------|-----2-4------------------|
A|----------------------------|------2--2--5--2-----2----|------------2--5----------|
E|----------------------------|--------------------------|--------------------------|

E|----------------------------|--------------------------|--------------------------|
B|----------------------------|----------------7---------|--------------------------|
G|----------------------------|----------------7---------|--------------------------|
D|------------------2---------|----------------6---------|------------------2-------|
A|------2--2--5--2-----2------|--------------------------|------2--2--5--2-----2----|
E|----------------------------|--------------------------|--------------------------|

E|----------------------------|--------------------------|--------------------------|
B|----------------------------|--------------------------|--------------------------|
G|-----------2----------------|--------------------------|----------2-4--2--4--4----|
D|---2-4--------------2--2----|--------------------------|--------4-----------------|
A|----------------------------|--------5~--------2-------|--------------------------|
E|----------------------------|--------------------------|--------------------------|

E|----------------------------------|--------------------|--------------------------|
B|----3-----------------------------|--------------------|--------------------------|
G|-------4--2-----------------------|--------------------|------------4-------------|
D|-------------4--3--2--0-----------|-----------4--------|-------4---------4--------|
A|-------------------------2--0-----|---2--2----5--------|--------------------------|
E|-------------------------------2--|--------------------|--------------------------|

E|-------------------------|------10---------------------|--------------------------|
B|---------------3--5------|---------12---10-------------|--------------------------|
G|------------4------------|-----------------11---10-9---|---7----------------------|
D|-----2-------------------|-----------------------------|-----9---7----------------|
A|-------------------------|-----------------------------|-----------9---7----5-----|
E|-------------------------|-----------------------------|----------------------7---|

E|--------------------|--------------------------|
B|--------------------|------------------0-------|
G|--------------------|----------------0---------|
D|--------------------|-------------2-------4-4--|
A|--------------------|-------1--4---------------|


Important: The song above is NOT stored on the Chordie server. The original song is hosted at www.xguitar.com. Chordie works as a search engine and provides on-the-fly formatting. Chordie does not index songs against artists/composers will. To remove this song please click here.

This song is displayed as text-only. Transposing and tuning is only available for chordpro-songs.

Login - add to songbook

Rating click stars to rate

Layout
Accuracy

SHARE PAGE  




You need to log in to post comments