"yes"; ?> Come Sail Away by Styx - guitar chords, guitar tabs and lyrics - chordie

Come Sail Away

Styx

 Ab-466544
 Ab/Gb-4x4322

Intro:
Piano
 CDm
Right Hand: e   d   c   e   f   d   c   f
Left Hand: e g e g e g c g f a f a f a d a

 EmDm
Right Hand: g   d   c   g   f   d   c   cbab
Left Hand: g b g b g b e b f a f a f a d a

 CG
                            trill
Right Hand: c bc b a b
Left Hand: e g e g e g c g b d b d b d g d

 CEmAmGF
 I'm sail-ing_______ a-way,      set an o - pen course

 GCEm
for the vir - gin sea.________  'Cause I've  got to_______ be

 AmGFG
 free,________          free to face the life    that's ahead of me.______

 AmG
     On board___ I'm the cap-tain,________      so climb aboard.

 AmG
     We'll search for to-mor-row____      on ev - 'ry shore.   And I'll

C Em Am G F G To intro
try, oh Lord,___ I'll__ try_____ to car - ry on.

x2

2nd ending
 F5G5
P.M.-------------------------------
D---3-3-3-3-3-3-3-3-5-5-5-5-5-5-5-5---|
A---3-3-3-3-3-3-3-3-5-5-5-5-5-5-5-5---|
E---1-1-1-1-1-1-1-1-3-3-3-3-3-3-3-3---|


Rhy. Fig. 1
 CF/CG(9)/CF/C
     PM-----------                      PM--------------
    hold----------                     hold-------------
e------------------5----5--5--x--7-7-|-7------------------5-----5--5-------|
B---5--------------6----6--6--x--8-8-|-8------------------6-----6--6-x-x---|
G---5--------------5----5--5--x--7-7-|-7------------------5-----5--5-x-x---|
D---5--------------7----7--7--x--7-7-|-7------------------7-----7--7-x-x---|
A---3--3-3-3-3-3-3-------------------|-------------------------------------|
E---------------------8--------------|----8--8-8-8--8-8-8------------------|


w/Rhy. Fig. 1
A gathering of angels appeared above my head they sang to me this song of hope
and this is what they said they said

 CF/CG(9)/CF/C
 Come sail away, come sail away, come sail away with me.  lads

 CF/CG(9)/CF/C
 Come sail away, come sail away, come sail away with me.

 CF/CG(9)/CF/C
 Come sail away,  come sail away,  come sail away with me   babe

 CF/CG(9)/CF/C
 Come sail away, come sail away, come sail away with me. to interlude

Interlude
 AbGb/AbAbGb/Ab
Synth arranged for Guitar
 AbGb/AbAbGb/AbAbGb/AbAbGb/Ab
P.M.-------------------------------
D-------6---6-------6---6-------6-----|
A-----6---6---6---6---6---6---6---6---|
E---4-----------4-----------4---------|x2


P.M.
D-------6---6---------|---6---|
A-----6---6---6---6---|-------|
E---4-----------4-----|-------|


Segue

Rhy.Fig.1

Lead Fig.1(Play each measure 4x's)
e---15p12----12---|---17p13----13---|---19p15----15---|---17p13----13---|
B---------13------|---------13------|---------15------|---------13------|


Good Luck


Ab Am C Dm Em F F/C F5 G G5 Gb/Ab
variations - click chord images
Transpose chords:
Tuning:
Cool service:
View: Size:
A  A  A
Rating:
Layout:
  • Currently 4.1/5 Stars.
  • 1
  • 2
  • 3
  • 4
  • 5
 
Accuracy:
  • Currently 2.8/5 Stars.
  • 1
  • 2
  • 3
  • 4
  • 5
 
click stars to rate
Chordie recommends:
Learn how to play guitar at JamPlay.com
Songbook:
Login to add this song to your songbook
Support the artist
Preview/buy this song
MSN Music
Why this non-profit ad?

 
login to add comments/video/corrections