Chordie logo

T.H.T.   Sum 41



TABLES HAVE TURNED
SUM*41
HALF HOUR OF POWER
STANDARD TUNING
BY MIKE TRONDSON

INTRO
gtr1
1---------------------------
2---------------------------
3-7-7/10-10-10--------------
4-x-x/-x-x--x-3times-7-7-7-7 2 times
5-5-5/-8-8--8--------7-7-7-7
6--------------------5-5-5-5
gtr2
1---------------------------
2---------------------------
3-7-7/10-10-10-3times-------
4-7-7/10-10-10-------7-7-7-7
5-5-5/8--8--8--------7-7-7-7
6--------------------5-5-5-5
verse
1-------------------------
2-------------------------
3-7-7-7-/1010\9-9---------
4-7-7-7-/x-x\-9-9--7-7-7-7
5-5-5-5-/8-8\-7-7--7-7-7-7
6------------------5-5-5-5

chorus
1------------------------------
2------------------------------
3-7-7-7-7\6-6-6-6-7-7/-10-10-10
4-7-7-7-7\6-6-6-6-7-7/-10-10-10
5-5-5-5-5\4-4-4-4-5-5/-8--8--8-
6------------------------------

1-------------------------------------
2-------------------------------------
3-7-7-7-7\6-6-6-6/10-10-10-10\-9-9-9-9
4-7-7-7-7\6-6-6-6/10-10-10-10\-9-9-9-9
5-5-5-5-5\4-4-4-4/8--8--8--8-\-7-7-7-7
6-------------------------------------

1------------------------------
2------------------------------
3---------6-6-6-6-7-7/-10-10-10
4-7-7-7-7-6-6-6-6-7-7/-10-10-10
5-7-7-7-7-4-4-4-4-5-5/--8--8--8


Important: The song above is NOT stored on the Chordie server. The original song is hosted at www.xguitar.com. Chordie works as a search engine and provides on-the-fly formatting. Chordie does not index songs against artists/composers will. To remove this song please click here.

This song is displayed as text-only. Transposing and tuning is only available for chordpro-songs.

Login - add to songbook

Rating click stars to rate

Layout
Accuracy

SHARE PAGE  

You need to log in to post comments